Newton Faulkner Tabs

To The Light

1 versions

TAB

            NEWTON FAULKNER - TO THE LIGHT


Tabbed by Ollie Buchanan 2007


h# = hammer on
p# = pull off
x  = dead note
s  = slap
p  = pluck
r  = right hand thump on main body
l  = left hand two finger slap on edge of body


INTRO:

[CAPO 2]

c#|----------------------------|
G#|------------------------12--|
F#|------7\6---7-6h7h9-7-9-----|
C#|----0-----------------------|
F#|----------------------------|
C#|--0-------------------------|


c#|---------------------------------0----------------------------------|
G#|-----------------------------0---0-----0------------0---------0-----|
F#|------7\6---7-6h7h9-7-6-7----11--9--7--6--4--------9/11--9-7--6--4--|
C#|----0------------------------0---0--------0------0---------------0--|
F#|--------------------------------------------------------------------|
C#|--0--------------------------0---------7--5----0--------------9--7--|


c#|------------------------------------------------------------------------|
G#|--12-10-9-10-9-10--12-10-9-10-9-10--12-10-9-10-9-10--12-10-9-10-9h10p9--|
F#|--0--0--0-0--0-0---0--0--0-0--0-0---0--0--0-0--0-0---0--0--0-0--0-------|
C#|------------------------------------------------------------------------|
F#|------------------------------------0--0--0-0--0-0---0--0--0-0--0-------|
C#|------------------------------------------------------------------------|


c#|----------------------------------------------------------|
G#|------------------------------------------------------|
F#|------------------------------------------------------|
C#|----0-0------0-0-------------0-0------0-0--x------x-------|
F#|--------7\0----------------------7\0-------x------x-------|
C#|--0-----0------------------0-----0---------x------x-------|
     s p p s    p p           s p p s    p p  s  p   s  p 
           r         r l r l                   

c#|----------------------------------------------------------|
G#|----------------------------------------------------------|
F#|--------------------------------------------------|
C#|----0-0------0-0-------------0-0------0-0--x------x-------|
F#|--------7\0----------------------7\0-------x------x-------|
C#|--0-----0------------------0-----0---------x------x-------|
     s p p s    p p           s p p s    p p  s  p   s  p 
           r         r l r l                   

c#|----------------------------------------------------------|
G#|------------------------------------------------------|
F#|------------------------------------------------------|
C#|----0-0------0-0-------------0-0------0-0--x------x-------|
F#|--------7\0----------------------7\0-------x------x-------|
C#|--0-----0------------------0-----0---------x------x-------|
     s p p s    p p           s p p s    p p  s  p   s  p 
           r         r l r l                   

c#|----------------------------------------------------------|
G#|----------------------------------------------------------|
F#|----------------------------------------------------------|
C#|----0-0------0-0-------------0-0------0-0-----------------|
F#|--------7\0----------------------7\0----------------------|
C#|--0-----0------------------0-----0------------------------|
     s p p s    p p           s p p s    p p   
           r         r l r l                   r l r

c#|--0-0-0-0-0-0-0-0-0-0-0-0-0---|
c#|--0-0-0-0-0-0-0-0-0-0-0-0-0---|
G#|--0-0-0-0-0-0-0-0-0-0-0-0-0---|
F#|--5-5-5-5-4-2-5-5-5-5-4-2\11--|
C#|--0-0-0-0-0-0-0-0-0-0-0-0-0---|
F#|--5-5-5-5-4-2-5-5-5-5-4-2\11--|
C#|------------------------------|


c#|-----------------------------------------------------|
G#|-----------------------------------------------------|
F#|-----------------------------------------------------|
C#|----0-0------0-0-------------0-0------0-0------------|
F#|--------7\0----------------------7\0-----------------|
C#|--0-----0------------------0-----0-------------------|
     s p p s    p p           s p p s    p p   
           r         r l r l                   r l r

c#|--0-0-0-0-0-0-4-4-4-4-2-0--|
c#|--0-0-0-0-0-0-0-0-0-0-0-0--|
G#|--0-0-0-0-0-0-0-0-0-0-0-0--|
F#|--5-5-5-5-4-2-5-5-5-5-4-2--|
C#|--0-0-0-0-0-0-0-0-0-0-0-0--|
F#|--5-5-5-5-4-2-5-5-5-5-4-2--|
C#|---------------------------|


c#|--0-0-0-0-0-0-0-0-0-0-0-0-0-0-0-0-0-0-0--|    [listen to get the right rhythm here]
G#|--0-0-0-0-0-0-0-0-0-0-0-0-0-0-0-0-0-0-0--|
F#|--2-2-2-2-2-2-4-4-4-4-4-4-5-5-5-5-5-5-6--|
C#|--0-0-0-0-0-0-0-0-0-0-0-0-0-0-0-0-0-0-0--|
F#|--2-2-2-2-2-2-4-4-4-4-4-4-5-5-5-5-5-5-6--|
C#|--0-0-0-0-0-0-0-0-0-0-0-0-0-0-0-0-0-0-0--|


VERSE ONE:

c#|------------------------------------------------------|    [again you'll need to listen for the
G#|------------------------------------------------------|     rhythmn, and those dead note thumb
F#|----11--9-p0----------------5-5--------4-----4h5p4\2--|     slaps are played quite  fast!]
C#|----0---0----0-x-0-x-------------------------0--------|
F#|---------------x---x------x----------x----------------|
C#|--0------------x---x-0-h5-x-----0-h4-x-----0----------|
                p s p s s    s p p s    s p

c#|------------------------------------------------------|
G#|------------------------------------------------------|
F#|----11--9-p0----------------5-5--------4--------------|
C#|----0---0----0-x-0-x----------------------------------|
F#|---------------x---x------x----------x----------------|
C#|--0------------x---x-0-h5-x-----0-h4-x----------------|
                p s p s s    s p p s    s p

c#|------------------------------------------------------|
G#|--------------0---------------------------------------|
F#|----11--9--0----------------5-5--------4-----4h5p4\2--|
C#|----0---0------------------------------------0--------|
F#|--------------------------x----------x----------------|
C#|--0------------------0-h5-x-----0-h4-x-----0----------|
                        s    s p p s    s p
                      r

c#|------------------------------------------------------| [repeat while
G#|------------------------------------------------------|  singing verse
F#|----11--9-p0----------------5-5--------4--------------|
C#|----0---0----0-x-0-x----------------------------------|
F#|---------------x---x------x----------x----------------|
C#|--0------------x---x-0-h5-x-----0-h4-x----------------|
                p s p s s    s p p s    s p

I'm taking a break becuase I'm loosing it again,

And I wanna relate without them thinking I'm insane,

Oh it's the same, another train, just sitting around with a record in my brain and-

Could have everything you wanted but you would be still be wanting more,

Cos the sun is always in your eyes,

You search for stillness on a rock that's spinning around and round and your suprised...


CHORUS:

c#|-------------------------------------------------------|
G#|-------------------------------5------4------3------2--|
F#|--0------0------0-------0------------------------------|
C#|-------------------------------------------------------|
F#|----------------10------9------0------0------0------0--|
C#|--8------7---------------------------------------------|
       r  r   r  r    r  r   r  r   r  r   r  r   r  r  

Take a break from all I know,

Just sit back and let it flow,

Then I've found I've broken through, 

To the light again.


VERSE TWO:

c#|------------------------------------------------------|    [just repeat again...]
G#|------------------------------------------------------|
F#|----11--9-p0----------------5-5--------4--------------|
C#|----0---0----0-x-0-x----------------------------------|
F#|---------------x---x------x----------x----------------|
C#|--0------------x---x-0-h5-x-----0-h4-x----------------|
                p s p s s    s p p s    s p

And everytime I find I'm thinking about things I want,

And that is the time I have nothing to sing,

Everytime I find I'm thinking about things that don't matter,

That is the time I see everything,

I want to know Lord, why it's got to be so hard,

When I know Lord, why it's got to be so hard,

Feel like a muppet with a drunken puppeteer but I'll survive, I will survive.


CHORUS:

[CAPO 6]

c#|---------------------------------------------------------------------------------------|
G#|---------------------------------------------------------------------------------------|
F#|-----------------------0---------------------------------------------------------------|
C#|--0------0------0------0------7------6------5------4------7------0------0----3\4-------|
F#|----------------5------4---------------------------------------------------------------|
C#|--3------2--------------------0------0------0------0------0------3------2------0-------|
       r  r   r  r   r  r   r  r   r  r   r  r   r  r   r  r   r  r   r  r   r  r   r  r

Take a break from all I know,

Just sit back and let it flow,

Then I've found I've broken through, 

To the light again,

Then I've found I've broken through, 

To the light again.


BRIDGE:

c#|--0-0-0--0/0-0\0--0-0--0-0-0-2-0-0-0-4-0-0-0--| [x4]
G#|--0-0-0--0/0-0\0--0-0--0-0-0-0-0-0-0-0-0-0-0--|
F#|--2-2-2--2/4-4\2--0-0--0-0-0-0-0-0-0-0-0-0-0--|
C#|--0-0-0--0/0-0\0--0-0--0-0-0-0-0-0-0-0-0-0-0--|
F#|--2-2-2--2/4-4\2--0-0-------------------------|
C#|--0-0-0--0/0-0\0--0-0-------------------------|

To the light again,

To the light again, 

c#|--0-0-0-0-4-5-4--4-5-4-5-4-2-0--| [x2]
G#|--0-0-0-0-0-0-0--0-0-0-0-0-0-0--|
F#|--2-2-2-2-0-0-0--0-0-0-0-0-0-0--|
C#|--0-0-0-0-4-5-4--4-5-4-5-4-2-0--|
F#|--2-2-2-2-0-0-0--0-0-0-0-0-0-0--|
C#|--0-0-0-0-----------------------|

Whoa!


CHORUS:

c#|--0--------------------------------0------0------0------0-------|
G#|--0-------------------------------------------------------------|
F#|--2----2---1---------0---0---0----------------------------------|
C#|--0----0---0----0----0---0---0-----7------6------5------4-------|
F#|--2------------------5-5---5-4--0-------------------------------|
C#|--0--0---0-2--2---/5---------------0------0------0------0-------|
                                        r  r   r  r   r  r   r  r

Take a break from all I know,

Just sit back and let it flow,

Then I've found I've broken through, 

To the light again,


c#|-----------------------------------------0------0------0------0-------0---------------|
G#|--------------------------------------------------------------------------------------|
F#|--2----2--------------0------------0--------------------------------------------------|
C#|--0----0---0----0-----0---------0-----7------6------5------4-------7----0--0--3\4--|
F#|----------------------5------5h7-5-4--0-----------------------------------------------|
C#|--3--3---3-2--2---/5---------------------0------0------0------0-------0--7/3--2----0--|
                                              r  r   r  r   r  r   r  r    

Take a break from all I know,

Tell myself to let it go,

Then I've found I've broken through, 

To the light again,

Then I've found I've broken through, 

To the light again.    

Added On December 16th, 2013

SHARE

Comments

blog comments powered by Disqus

ADVERTISEMENT