Nick Jonas Tabs

My Love

1 versions

TAB

            Intro/Verse:
Em
e ----3------------|
B -----------------|
G ------0---0--0---| 2x
D -----------------|
A -----------------|
E --0---------0----|

G
e ----3------------|
B -----------------|
G ------0---0--0---| 2x
D -----------------|
A -----------------|
E --3---------3----|

Caad9
e ----3------------|
B -----------------|
G ------0---0--0---|
D -----------------|
A --3---------3----|
E -----------------|

e -----------------|
B -----------------|
G -----0----0--0---|
D -0h2-------------|
A -------3----3----|
E -----------------|

Chorus:
D
e ----3------------|
B -----------------|
G -----3--3---3----| 2x
D --0-------0------|
A -----------------|
E -----------------|

Caad9
e ----3------------|
B -----------------|
G ------0---0--0---|
D -----------------|
A --3---------3----|
E -----------------|

e -----------------|
B -----------------|
G -----0----0--0---|
D -0h2-------------|
A -------3----3----|
E -----------------|

than repeat picking for D twice and once for Caad9, then just pluck D and G for ending    

Added On December 16th, 2013

SHARE

Comments

blog comments powered by Disqus

ADVERTISEMENT