Nickelback Tabs

Follow You Home

5 versions

TAB

            Follow You Home Tab by Nickelback


Tab by Daniel M√ľnch


Nickelback - Follow You Home
Album: All The Right Reasons

Tuning: CGCFAD

x:    palm mute
c.t.: couple times

Intro

 F G     Bb                         C   Bb C  Bb                        D#

------------------------------------------------------------------------------------|
------------------------------------3-----------------------------------------------|
------------------------------------2-----------------------------------------------|
-5-7-5-7-10-7-5-7-5-7-10-10-5-7-x-x-0---------------7-5-7-10-10-5-7-x-x-3---10-12---|
-5-7-5-7-10-7-5-7-5-7-10-10-5-7-x-x-0---------------7-5-7-10-10-5-7-x-x-3---10-12---|
-5-7-5-7-10-7-5-7-5-7-10-10-5-7-x-x-0---10h12p10----7-5-7-10-10-5-7-x-x-3---10-12---|


-------------------------------------------------------------------|
---------------------3---------------------------------------------|
---------------------2---------------------------------------------|
-7-5-7-10-10-5-7-x-x-0--------------7-5-7-10-10-5-7-x-x-3---10-12--| = Chorus
-7-5-7-10-10-5-7-x-x-0--------------7-5-7-10-10-5-7-x-x-3---10-12--|
-7-5-7-10-10-5-7-x-x-0---10h12p10---7-5-7-10-10-5-7-x-x-3---10-12--|


Solo
(Wah Wah)
----------------------------------------------------------------------|
---------------------------------5s8s10s13s15s17-17-----15-17-17------|
---5----------5-----------5-7-5---------------------14------------14--|
-7---7--5--7-----7--5--7----------------------------------------------|
----------------------------------------------------------------------|
----------------------------------------------------------------------|


----------------------------------------------------------------------|
-------------------3--------------------------------3-----------------|
-------------------2--------------------------------2-----------------|
-7-5-7-10-10-5-7---0--------------7-5-7-10-10-5-7---0---10-12---------|  2x
-7-5-7-10-10-5-7---0--------------7-5-7-10-10-5-7---0---10-12---------|
-7-5-7-10-10-5-7---0---10h12p10---7-5-7-10-10-5-7---0---10-12---------|

 x x x  x  x x x   x   x  x  x    x x x  x  x x x   x    x  x

----------------------------------------------------------------------|
----------------------3-----------------------------------------------|
----------------------2-----------------------------------------------|
-----3----------------0-----------------------------------------------|
-----3----------------0-----------------------------------------------|
-----3----------------0-----------------------------------------------|
    c.t.             c.t.


----------------------------------------------------------------------|
-------------------3--------------------------------3-----------------|
-------------------2--------------------------------2-----------------|
-7-5-7-10-10-5-7---0--------------7-5-7-10-10-5-7---0---10-12---------|
-7-5-7-10-10-5-7---0--------------7-5-7-10-10-5-7---0---10-12---------|
-7-5-7-10-10-5-7---0---10h12p10---7-5-7-10-10-5-7---0---10-12---------|

----------------------------------------------------------------------|
----------------------3-----------------------------------------------|
----------------------2-----------------------------------------------|
-----3----------------0-----------------------------------------------|
-----3----------------0-----------------------------------------------|
-----3----------------0-----------------------------------------------|
    c.t.             c.t.


----------------------------------------------------------------------|
------3------------------------2--------------------------------------|
------2-----------------7------2--------------------------------------|
--7---0----5--10-----5--7--7---0---5--10------------------------------|
--7---0----5--10-----5--5--7---0---5--10------------------------------|
--7---0----5--10-----5-----7---0---5--10------------------------------|


Solo befor second verse ( I don't know how Chad does that Solo, but here is an "easy" version)

-------------------------------------------------|
-------------------------------------------------|
-12h14-12h14-12h14-12h14-12h14-12h14-12h14-12h14-|
-------------------------------------------------|
-------------------------------------------------|
-------------------------------------------------|


-----------------------------------------------------------------------------------|
-----------------------------------------------------------------------------------|
-12h14-12h14-12h14-12h14-12h14-12h14-12h14-12h14-----12-14-14-12-14-17-14-12-14-12-|
-------------------------------------------------14--------------------------------|
-----------------------------------------------------------------------------------|
-----------------------------------------------------------------------------------|


--------------------|
--------------------|
--------------------|
-14-12-12-14-14-----|
----------------12--|
--------------------|
There's a little Solo played by Ryan while Chad plays the Chorus

------------------------------------------------------|
------------------------------------------------------|
--7--9--5--7--9--5--7--9------------------------------|
-------------------------7----------------------------|repeat a couple times
------------------------------------------------------|
------------------------------------------------------|


I coulnd't tab the last Solo in the Bridge, but anyway, when they play it live, Ryan 
another one, maybe freestyle.
So just impro!

I watched the video from AOl Sessions, there you can see, how they play it, so maybe 
100% correct (except of the
Solo befor second verse)

Have fun!

For questions: buff.da@web.de    

Added On December 5th, 2013

SHARE

Comments

blog comments powered by Disqus