Nickelback Tabs

Into The Night

1 versions

TAB

            Into The Night,
Carlos Santana ft. Chad kroeger

    Tuning: standard

Hope you enjoy see bottom for details.

(into) (Carlos)(electric)

 Am           C         G       D       Am      C     G     D
E|-----------|---------|----3-5-5|5------|------------------------------------|
B|---1-0-----|--1-3-5-3|--5------|--3-1-1|----1s3s5h8--10-3-3-3--3-3-1p0------|
G|-2-----2-0-|---------|---------|-------|---2---------------------------2-2--|
D|-----------|---------|---------|-------|-2----------------------------------|
A|-----------|---------|---------|-------|------------------------------------|
E|-----------|---------|---------|-------|------------------------------------|


(intro) (Chad)(acoustic)

Am        C          G          D
E||-------0---------------3----------2------0----------|
B||--1--1------1--1--3----3----3-----3----3------------|
G||--2---------0-------------0-----0-2--2--------------|
D||--2---------2---------------------------------------|
A||------------3----------2----------------------------|
E||-----------------------3----------------------------|
Verse 1-

Am                         C
Like a gift from the heavens, it was easy to tell,
G                       D
It was love from above, that could save me from hell,
Am                        C
She had fire in her soul it was easy to see,
G                       D
how the devil himself could be pulled out of me,
Am                          C
There were drums in the air as she started to dance,
G                        D
Every soul in the room keeping time with there hands,

And we sang…

Chorus-
Am              C
Ay oh ay oh ay oh ay,
G                                        D
And the voices bang like the angels sing,

We’re singing…
Am               C
Ay oh ay oh ay oh ay,
G                           D
And we danced on into the night,
Am
Ay oh ay oh,
       C
Ay oh ay oh,
G                          D
And we danced on into the night,

Verse 2(same chords as verse one)-
Like a piece to the puzzle that falls into place,
You could tell how we felt from the look on our faces,
we was spinning in circles with the moon in our eyes,
The room left them moving between you and I,
We forgot where we were and we lost track of time,
And we sang to the wind as we danced through the night,
And we sang…

(Chorus)

(Solo)

(Verse 1 repeated)

(Chorus)x2


This tab was not completely tabbed by me i just corrected some parts in the intros hope 
find it correct!

Tabbed by Almogkan, bennylifegiver, and Unregistered. corrected by Nathan77. if you have 
corrections post your version of the tab up thanks guys! God Bless!    

Added On December 16th, 2013

SHARE

Comments

blog comments powered by Disqus

ADVERTISEMENT