Nightwish Tabs

Dead To The World

5 versions

TAB

            Intro
e:-----------------------------------------------------------------------------|
B:-----------------------------------------------------------------------------|
G:-----------------------------------------------------------------------------|
D:------------------3---6-6-------8--------------------------------------------|
A:-3---3-3---8-6-5--3---4-4---8-6-6--------------------------------------------|
D:-3---3-3---8-6-5--3---------8-6----------------------------------------------|
   .   . .   . . .      . .   . . .

Riff
Guitar 1
Play this 2 times :
e:-----------------------------------------------------------------------------|
B:-----------------------------------------------------------------------------|
G:-9-----9-----9-10-7-----7-----7-9-5-----5-----5-7-4-----4-----5-7------------|
D:---7-7---7-7--------7-7---7-7-------7-7---7-7-------5-5---5-5----------------|
A:-----------------------------------------------------------------------------|
D:-----------------------------------------------------------------------------|

e:-----------------------------------------------------------------------------|
B:-----------------------------------------------------------------------------|
G:-9-----9-----9-10-7-----7-----7-9-10-----10-----10-12-10-9-7-10--------------|
D:---7-7---7-7--------7-7---7-7--------7-7----7-7------------------------------|
A:-----------------------------------------------------------------------------|
D:-----------------------------------------------------------------------------|

Then
e:-----------------------------------------------------------------------------|
B:-----------------------------------------------------------------------------|
G:-9-7-5-9-7-5-4-0-2----2\-----------------------------------------------------|
D:-----------------2----2\-----------------------------------------------------|
A:-----------------0----0\-----------------------------------------------------|
D:-----------------------------------------------------------------------------|

Guitar 2
e:-----------------------------------------------------------------------------|
B:-----------------------------------------------------------------------------|
G:-----------------------------------------------------------------------------|
D:-----------------------------------------------------------------------------|
A:-0-0-0-0-0-0-7-10-0-0-0-0-0-0-7-10-0-0-0-0-0-0-7-10-0-0-0-0-0-0-7-10---------|
D:-----------------------------------------------------------------------------|
  p.m. . . . . . . . . . . . . . . . . . . . . . . . . . . . . . . . .

e:--------------------------------|----------2 TIMES------------------------|
B:--------------------------------|--------------------------------------------|
G:--------------------------------|-------------------2----2\------------------|
D:-------3---3---2p0---7---5------|---2-0---2-0-------2----2\------------------|
A:---------------------5---3---5--|-------3-----3-2---0----0\------------------|
D:-3-3-3---3---3---------------5--|-----------------5--------------------------|
   p.m. . . . . . . .

Verse (2 times)
e:-----------------------------------------------------------------------------|
B:-----------------------------------------------------------------------------|
G:-----------------------------------------------------------------------------|
D:-------------5-7-------------------------------------------------------------|
A:-7-0-0-7-5-0-----7-0-0-7-5-0-3-2-5-----5-3---2-3-5-----5-3---2-3-------------|
D:-----------------------------------5-5-----5-------5-5-----5-----------------|
  p.m. . . . . . . . . . . . . . . . . . . . . . . . . . . . . . .

e:-----------------------------------------------------------------------------|
B:-----------------------------------------------------------------------------|
G:-----------------------------------------------------------------------------|
D:-----------------7------3----------------------------------------------------|
A:-0-0-0-0-0-0-5/7-7--5\3-3----------------------------------------------------|
D:-0-0-0-0-0-0-5/7-7--5\3-3----------------------------------------------------|
   p.m. . . . . .     . .

Bridge
e:-----------------------------------------------------------------------------|
B:-----------------------------------------------------------------------------|
G:-------------------------------------5-------7---2---5-----------------------|
D:-7-----------------2-----2---2-----2-5---5---7---2---5-----------------------|
A:-5-5-5-5-5-5-5-5-5-0-0-0-0-0-0-0-0-0-3---5---5---0---3-----------------------|
D:-----------------------------------------5-----------------------------------|
   p.m. . . . . . . . . . . . . . . . .
e:-----------------------------------------------------------------------------|
B:-----------------------------------------------------------------------------|
G:-----------------------------------------------------------------------------|
D:-7-----7---7-----7-2-----2---2-----2-3---5-----------------------------------|
A:-5-5-5-5-5-5-5-5-5-0-0-0-0-0-0-0-0-0-3---5-----------------------------------|
D:-------------------------------------3---5-----------------------------------|
   p.m. . . . . . . . . . . . . . . . .

Verse
e:-----------------------------------------------------------------------------|
B:-----------------------------------------------------------------------------|
G:-----------------------------------------------------------------------------|
D:-------------5-7-------------------------------------------------------------|
A:-7-0-0-7-5-0-----7-0-0-7-5-0-3-2-5-----5-3---2-3-5-----5-3---2-3-------------|
D:-----------------------------------5-5-----5-------5-5-----5-----------------|
   p.m. . . . . . . . . . . . . . . . . . . . . . . . . . . . . . .

e:-----------------------------------------------------------------------------|
B:-----------------------------------------------------------------------------|
G:-----------------------------------------------------------------------------|
D:-----------------7------3----------------------------------------------------|
A:-0-0-0-0-0-0-5/7-7--5\3-3----------------------------------------------------|
D:-0-0-0-0-0-0-5/7-7--5\3-3----------------------------------------------------|
   p.m. . . . . .     . .

e:-----------------------------------------------------------------------------|
B:-----------------------------------------------------------------------------|
G:-----------------------------------------------------------------------------|
D:-------------5-7-------------------------------------------------------------|
A:-7-0-0-7-5-0-----7-0-0-7-5-0-3-2-5-----5-3---2-3-5-----5-3---2-3-0-0-0-0-0-0-|
D:-----------------------------------5-5-----5-------5-5-----5-----0-0-0-0-0-0-|
  p.m. . . . . . . . . . . . . . . . . . . . . . . . . . . . . . . . . . . . .

Chorus
e:-----------------------------------------------------------------------------|
B:-----------------------------------------------------------------------------|
G:-----------------------------------5-----------------------------------------|
D:-----7------0--5--7------7------3--5--5--------------------------------------|
A:-5/7-7--5-0-0--5--7--5/7-7--5\3-3--3--5--------------------------------------|
D:-5/7-7--5-0-0--5--7--5/7-7--5\3-3-----5--------------------------------------|
   . .    . .          . .    . .

e:-----------------------------------------------------------------------------|
B:-----------------------------------------------------------------------------|
G:-----7---------5--7------7------3-----5--------------------------------------|
D:-5/7-7--5---5--5--7--5/7-7--5\3-3--3--5--------------------------------------|
A:-3/5-5--3-5-5--3--5--3/5-5--3\1-1--3--3--------------------------------------|
D:----------5-5----------------------3-----------------------------------------|
   . .    . .          . .    . .

Riff
Guitar 1
Play this 2 times
e:-----------------------------------------------------------------------------|
B:-10-----10-----10-11-8-----8-----8-10-6-----6-----6-8-5-----6-8--------------|
G:----7-7----7-7---------7-7---7-7--------7-7---7-7-------5-5------------------|
D:-----------------------------------------------------------------------------|
A:-----------------------------------------------------------------------------|
D:-----------------------------------------------------------------------------|

e:-----------------------------------------------------------------------------|
B:-10-----10-----10-11-8-----8-----8-10-11-----11-----11-13-11-10-8-11---------|
G:----7-7----7-7---------7-7---7-7---------7-7----7-7--------------------------|
D:-----------------------------------------------------------------------------|
A:-----------------------------------------------------------------------------|
D:-----------------------------------------------------------------------------|

Guitar 2
e:-----------------------------------------------------------------------------|
B:-----------------------------------------------------------------------------|
G:----2--3--------5------2--3--------5-----------------------------------------|
D:-0--2--3--5--3--5---0--2--3--5--3--5-----------------------------------------|
A:-0--0--1--5--3--3---0--0--1--5--3--3-----------------------------------------|
D:-0--------5--3------0--------5--3--------------------------------------------|

Bridge
e:-----------------------------------------------------------------------------|
B:-----------------------------------------------------------------------------|
G:---------------------------------------------2-------------------------------|
D:-------------------------5---5---4p2---2--0--2-------------------------------|
A:-2-2-2-2-2-2-2-2-2---------------------2--0--0-------------------------------|
D:-------------------5-5-5---5---5-------2--0----------------------------------|
   p.m. . . . . . . . . . . . . . . .

Rhythm under guitar solo
e:-----------------------------------------------------------------------------|
B:-----------------------------------------------------------------------------|
G:-------------------------2------------------------------------0-2-3-2-0------|
D:---------2-2-------------2--3-3-----3-3-----3-3-----3---0-2-3-----------3----|
A:-0-0-----0-0-----0-0-----0--1-1-1-1-1-1-1-1-1-1-1-1-1-3----------------------|
D:-0-0-0-0-----0-0-0-0-0-0-----------------------------------------------------|
   p.m. . . . . . . . . . . . . . . . . . . . . . . . .

e:-----------------------------------------------------------------------------|
B:-----------------------------------------------------------------------------|
G:-2-0-------------------------------------------------------------------------|
D:-----3-2-0-------------------------------------------------------------------|
A:---------0-------------------------------------------------------------------|
D:---------0-------------------------------------------------------------------|

Then
e:-----------------------------------------------------------------------------|
B:-----------------------------------------------------------------------------|
G:-5--7------7------3-----5----------------------------------------------------|
D:-5--7--5/7-7--5\3-3--3--5----------------------------------------------------|
A:-3--5--3/5-5--3\1-1--3--3----------------------------------------------------|
D:---------------------3-------------------------------------------------------|
         . .    . .

e:--------------------------------------------2 TIMES-----------------------|
B:-----------------------------------------------------------------------------|
G:-----------------------------------5-----------------------------------------|
D:-----7------0--5--7------7------3--5--5--------------------------------------|
A:-5/7-7--5-0-0--5--7--5/7-7--5\3-3--3--5--------------------------------------|
D:-5/7-7--5-0-0--5--7--5/7-7--5\3-3-----5--------------------------------------|
   . .    . .          . .    . .

End with
e:-----------------------------------------------------------------------------|
B:-----------------------------------------------------------------------------|
G:-----------------------------------------------------------------------------|
D:-----------------------------------------------------------------------------|
A:-5------5--7-----------------------------------------------------------------|
D:-5------5--7-----------------------------------------------------------------|
   .      .  .    

Added On December 16th, 2013

SHARE

Comments

blog comments powered by Disqus