Nine Inch Nails Tabs

Demon Seed

1 versions

TAB

            -------------------------------------------------------------------------------
			     Demon Seed - Nine Inch Nails
-------------------------------------------------------------------------------
Tabbed by:Daniel Garner	
Email:daniel_garner@abv.bg

Tuning:Standard

These are all the guitar parts I could hear,
some of them are repeated at some point,
you can figure out when(I've transcribed the first time each one is played).
Send and email if you think something is incorrect.
Enjoy!


at 0:33
e|---------------------------------------|
B|---------------------------------------|
G|---------------------------------------|
D|---------------------------------------| X3 and then 
A|-7-7-7/12-12-11---3-3-4-4-5-5----------|
E|-------------------------------3-3-4-4-|

e|---------------------------------------|
B|---------------------------------------|
G|---------------------------------------|
D|---------------------------------------|
A|-7-7-7/12-12-11---3-3-4-4-5-5---7-5h7--|
E|---------------------------------------|


at 1:27 
e|-------------------------------------------------------------------|
B|-------------------------------------------------------------------|
G|-------------------------------------------------------------------|
D|-------------------------------------------------------------------|
A|-7-7-7-7-7-7-7-7---3-3-3-3---12-12-12-12-12-12-12-12---------------|
E|-------------------------------------------------------2-2-2-3-3---|


at 1:49
e|----------------------------------------------|
B|--------------------------------12-12-12-12---|
G|--x-x-x---14\12(slightly palm---12-12-12-12---|
D|--x-x-x---14\12--mute at end)-----------------|
A|--x-x-x---12\10-------------------------------|
E|----------------------------------------------|

e|----------------------------------------------|
B|------------------------------12-12-12-12-----|
G|--x-x-x---9\7(slightly palm---12-12-12-12-----|
D|--x-x-x---9\7--mute at end)-------------------|
A|--x-x-x---7\5---------------------------------|
E|----------------------------------------------|


at 2:22 with heavy distortion
e|--------------------------------------|
B|--------------------------------------|
G|--9---9---9---9---9---9---9---9-------|
D|--9---9---9---9---9---9---9---9-------|
A|--7---7---7---7---7---7---7---7-------|
E|--0---0---0---0---0---0---0---0-------|


at 4:33
e|--12---10-4---10-8-------------------------------|
B|---------------------6-5------10---12-10---9-17--|
G|-------------------------------------------------|
D|-------------------------------------------------|
A|-------------------------------------------------|
E|-------------------------------------------------|




| /  slide up
| \  slide down
| h  hammer-on
| p  pull-off
| ~  vibrato
| +  harmonic
| x  Mute note
===============================================================================    

Added On December 16th, 2013

SHARE

Comments

blog comments powered by Disqus

ADVERTISEMENT