Nine Inch Nails Tabs

The Beginning Of The End

2 versions

TAB

            This is offa the new album "Year Zero"...Quite, quite good. Better than "With Teeth". 
concept album...mindless complements, mindless completements. To follow the year zero 
go to ninwiki.com. Enjoy...

Verse/Intro: Basic Riff Throught Song.

E|-----------------|-----------------|
b|-----------------|-----------------|
G|-7-7-7-7-7-7-7-7-|-7-7-7---5-5-5-5-|
D|-7-7-7-7-7-7-7-7-|-7-7-7---5-5-5-5-|
A|-5-5-5-5-5-5-5-5-|-5-5-5---3-3-3-3-|
e|


Chorus

E|-----------------|-----------------|
b|-----------------|-----------------|
G|-3-3-3-3-3-3-3-3-|-3-3-3-3-3-3-3-3-|
D|-3-3-3-3-3-3-3-3-|-3-3-3-3-3-3-3-3-|
A|-1-1-1-1-1-1-1-1-|-1-1-1-1-1-1-1-1-|
e|-----------------|-----------------|


E|-----------------|-----------------|
b|-----------------|-----------------|
G|-----------------|-----------------|
D|-5-5-5-5-5-5-5-5-|-5-5-5-5-5-5-5-5-|
A|-5-5-5-5-5-5-5-5-|-5-5-5-5-5-5-5-5-|
e|-3-3-3-3-3-3-3-3-|-3-3-3-3-3-3-3-3-|

Lyrics:

Down on your knees, you'll be left behind
This is the beginning
Watch what you think, they can read your mind
This is the beginning
I got my mark, see it in my eyes
This is the beginning
My reflection I don't recognize
This is the beginning

We think we climb so high
All up the backs we've condemned
We face our consequence
This is the beginning of the end

You wait your turn, you'll be last in line
This is the beginning
Get out the way, 'cause I'm getting mine
This is the beginning
God helps the ones that can help themselves
This is the beginning
May be too late as far as I can tell
This is the beginning

We think we've come so far
On all our lies we depend
We face our consequence
This is the beginning of the end

That's it. Enjoy.    

Added On December 16th, 2013

SHARE

Comments

blog comments powered by Disqus

VERSIONS

ADVERTISEMENT