Nine Inch Nails Tabs

The Hand That Feeds

3 versions

TAB

            Tuning: Drop D
Guitar (verse)x2
e|---------------------------------------------------------------------------|
B|---------------------------------------------------------------------------|
G|---------------------------------------------------------------------------|
D|-7-7-5-7--10--5-7-7-5-7--10--5-7-7-5-7--10--5-7-7-5-7--10------------------|
A|-7-7-5-7--10--5-7-7-5-7--10--5-7-7-5-7--10--5-7-7-5-7--10------------------|
E|-7-7-5-7--10--5-7-7-5-7--10--5-7-7-5-7--10--5-7-7-5-7--10------------------|
(Verse 2)
e|------------------------------------------------------------|
B|--13------12-----10-----8------15-16-15-15------14-15-------|
G|------------------------------------------------------------|
D|--10(x10)-9(x4)--7(x8)--5(x8)--12/13\12-12(x12)-11-12(x16)--|
A|------------------------------------------------------------|
E|------------------------------------------------------------|
   If you can't do this section the way it's tabbed here, just move it
   down to the 2nd string. It isn't difficult. 
(chorus)

I didn't spend much time on this section. seeing how its done with a synth,
There isn't much to tab. But this is what i got that sounds closest. 

e|-----------8-8-10-------------------------|
B|-10-10-8-8--------8h10--10-10-------------|
G|------------------------------5-5-7-------|
D|------------------------------------5-5h7-|
A|------------------------------------------|
E|------------------------------------------|


(outro)2:45
e|---------------------------------------------------------------------------|
B|---------------------------------------------------------------------------|
G|-~~~~~~~~~~~~~~~~~~~~~~~~~~pm~~~~~~~~~~~~~~~~~~~~~~~~~~~~------------------|
D|-7-7-5-7--10--5-7-7-5-7--10--5-7-7-5-7--10--5-7-7-5-7--10------------------|
A|-7-7-5-7--10--5-7-7-5-7--10--5-7-7-5-7--10--5-7-7-5-7--10------------------|
E|-7-7-5-7--10--5-7-7-5-7--10--5-7-7-5-7--10--5-7-7-5-7--10------------------|

e|---------------------------------------------------------------------------|
B|---------------------------------------------------------------------------|
G|---------------------------------------------------------------------------|
D|-5-7-7-5-7--10--5-7-7-5-7--10--5-7-7-5-7--10--5-7-7-5-7--10----------------|
A|-5-7-7-5-7--10--5-7-7-5-7--10--5-7-7-5-7--10--5-7-7-5-7--10----------------|
E|-5-7-7-5-7--10--5-7-7-5-7--10--5-7-7-5-7--10--5-7-7-5-7--10----------------|    

Added On December 16th, 2013

SHARE

Comments

blog comments powered by Disqus

VERSIONS

ADVERTISEMENT