No Doubt Tabs

Running

2 versions

TAB

            Running Tab by No Doubt


Intro
-----8--------8--------8--------8----------
---5---5----5---5----5---5----5---5--------
-5--------5--------5--------5--------------
-------------------------------------------
-------------------------------------------
-------------------------------------------


-----7--------7--------7--------7----------
---5---5----5---5----5---5----5---5--------
----------4--------4--------4--------------
-------------------------------------------
-------------------------------------------
-0-----------------------------------------



------8--------8--------8--------8---------
----5---5--------5--------5--------5-------
-------------5--------5--------5-----------
--7--------7--------7--------7-------------
-------------------------------------------
-------------------------------------------

                  
-----3--------3--------1--------1----------
-------3--------3--------1--------1--------
---4--------4--------2--------2------------
-5--------5--------3--------3--------------
-------------------------------------------
-------------------------------------------


C                   Em
Run, running all the time
              Am
Running to the future
                G         F
With you right by my side 
C                  Em
Me, I'm the one you chose
               Am
Out of all the people
             G          F
You wanted me the most 


   C
And I'm so sorry that I've fallen
Em
Help me up, let's keep on running
Am           G            F     G
Don't let me fall out of love 

C
Running, running as fast as we can
Em
Do you think we'll make it?
       Am
We're running, keep holding my hand
G               F
So we don't get separated    

Added On December 5th, 2013

SHARE

Comments

blog comments powered by Disqus

VERSIONS

ADVERTISEMENT