No Doubt Tabs

World Go Round

1 versions

TAB

            ----------------------------------------------------------------------------
                          WORLD GO 'ROUND - No Doubt
----------------------------------------------------------------------------
Tabbed by: Ben Cunningham 'BCunningham'
Email: stuckonu_1212@hotmail.com

Tuning: Standard


Intro

e|-------------------------------------------------------------------3---|
B|---------------------0--3--0---------------------------------------0---|
G|---------0--0--2--2-----------2--0--0------0-----0-----0-----0-----0---|
D|---0--2---------------------------------2-----0-----2-----0--------0---|
A|-------------------------------------------------------------------2---|
E|----------------------------------------------------------------3--3---|

Post Intro
e|----------------|
B|----------------|
G|----------------|
D|---5--5--5--5---|
A|---5--5--5--5---|
E|---3--3--3--3---|


Verse Pt. 1

e|------------------------------------------------------|
B|------------------------------------------------------|
G|------------------------------------------------------|
D|---5--5--5--5--5--5--5--5---2--2--2--2---5--5--5--5---|
A|---5--5--5--5--5--5--5--5---2--2--2--2---5--5--5--5---|
E|---3--3--3--3--3--3--3--3---0--0--0--0---3--3--3--3---|

Verse Pt. 2
e|-----------------------------------------------------|
B|-----------------------------------------------------|
G|-----------------------------------------------------|
D|---5--5--5--5--5--5--5--5---2--2--2--2--2--2--2--2---|
A|---5--5--5--5--5--5--5--5---2--2--2--2--2--2--2--2---|
E|---3--3--3--3--3--3--3--3---0--0--0--0--0--0--0--0---|


Chorus

e|-------------------------------------------------|
B|-------------------------------------------------|
G|-------------------------------------------------|
D|-------------------------2-2-0-0-----0-0---------|
A|---------------2-----------------2-2-----0-0-----|
E|---3--3--5--5-----5--3-----------------------3~--|


Bridge

e|--------------------------------------------------|
B|--------------------------------------------------|
G|--------------------------------------------------|
D|---7-7-7-7-7-7-7-----------7-7-7-7-7-7-7----------|
A|---7-7-7-7-7-7-7-----------7-7-7-7-7-7-7----------|
E|---5-5-5-5-5-5-5--5-6------5-5-5-5-5-5-5--5-6-7---|
*This part is was oddly difficult for me to tab out but
I think the power chords are right. Listen to the song
for the single notes' rhythm, it changes every time.
Honestly, the single notes arent exactly in that order
every time, it gets switched up alot.


Fill

e|-----------------|
B|-----------------|
G|-----------------|
D|-----------------|
A|-----------------|
E|---3-3---5-3-3---|


Song Order
Intro x1
Post Intro x4
Verse Pt. 1 x1
Verse Pt. 2 x1
Chorus x2
Post Intro x3
Verse Pt. 1 x1
Verse Pt. 2 x1
Chorus x4
Bridge x4
Chorus x1
Fill x2
Chorus x7? (It fades out on the album,
so whatever you want really!)

Well, No Doubt fans, this is honestly not my best work ever, but that is all
I've really got for now. There's this cool little riff that happens in the
song, but I'm having a terrible time tabbing it out right now! My hearing
just goes out sometimes, it seems... Well, have fun!


| /  slide up
| \  slide down
| h  hammer-on
| p  pull-off
| ~  vibrato
| +  harmonic
| x  Mute note
============================================================================    

Added On December 16th, 2013

SHARE

Comments

blog comments powered by Disqus

ADVERTISEMENT