No One Tabs

Random Crap

1 versions

TAB

            -------------1-4-2---------------------7-6-4-------------|
-------------------2-----------------5-------------------|
---------------------4-------------6---------------------|
-2-0-------------------4---------5-------------------0-2-|
-----2-0-----------------1-----3-----------------0-2-----|
---------2-0---------------4-2---------------0-2---------|


-------------0-0-0-0-0-0-0-0-0-0-0-0-0-0-0-0-------------|
---------------------------------------------------------|
---------------------------------------------------------|
---------------------------------------------------------|
---------------------------------------------------------|
---------------------------------------------------------|
it makes an angry emoticon wit cheek bones    

Added On December 16th, 2013

SHARE

Comments

blog comments powered by Disqus

ADVERTISEMENT