No Use For A Name Tabs

Feels Like Home

4 versions

TAB

            Feels Like Home Tab by No Use For A Name


No Use For A Name
Feels Like Home
Hard Rock Bottom
Tabbed by: Justin Baillargeron
 
Clean, little bit of chorus

               1st    2nd
|------|------|------|-----|
|------|------|------|-----|
|------|------|------|-----|
|------|------|------|---8-|
|---6--|---8--|---10-|-6---|
|-4----|-6----|-8----|-----|
 4x     4x     4x     4x
 It's too late...

|------|-----|------|-----|-----|
|------|-----|------|-----|-----|
|------|-----|------|-----|-----|
|------|-----|------|-----|---8-|
|---6--|---8-|--10--|---6-|-6---|
|-4----|-6---|-8----|-4---|-----|
 4x     4x    4x     8x    8x
 Listen...           You still live...

            
|-----|-----|------|-----|-----|
|-----|-----|------|-----|-----|
|-----|-----|------|-----|-----|
|---8-|-----|------|-----|-----|
|-6---|---8-|---10-|---8-|---6-|
|-----|-6---|-8----|-6---|-4---|
 8x    8x    4x     4x    8x
 Something tells me.....

|-----|-----|------|-----|-----|--------------------|
|-----|-----|------|-----|-----|--------------------|
|-----|-----|------|-----|-----|--------------------|
|---8-|-----|------|-----|-----|----------------8---|
|-6---|---8-|---10-|---8-|---6-|-6--6--6--6--3--6---|
|-----|-6---|-8----|-6---|-4---|-4-----3-----1------|
 8x    8x    4x     4x    4x    
 It's never easy to understand.....    

Added On December 5th, 2013

SHARE

Comments

blog comments powered by Disqus

VERSIONS

ADVERTISEMENT