No Use For A Name Tabs

Invincible

2 versions

TAB

            Invincible Tab by No Use For A Name


NO USE FOR A NAME
Song – Invincible
Album – MAKING FRIENDS (track 2)
Transcribed by Erik (theonemanorgy)

Standard Tuning

INTRO
Guitar 1 (play twice before guitar 2 comes in)
e|-------------------------------------------------| 
B|-------------------------------------------------| 
G|-------------55-555555--77-777777----------------|       
D|--22-222222--55-555555--77-777777--55-55--55-55--|           
A|--22-222222--33-333333--55-555555--55-55--55-55--|        
E|--00-000000------------------------33-33--22-22--| 
Pm     ......     ......     ......     ..     ..

Strum while guitar 2 plays
e|-------------------------------------------------| 
B|-------------------------------------------------| 
G|-------------55-555555--77-777777----------------|       
D|--22-222222--55-555555--77-777777--55-55--55-55--|           
A|--22-222222--33-333333--55-555555--55-55--55-55--|        
E|--00-000000------------------------33-33--22-22--| 

Guitar 2 (listen for rhythm, beats per note listed below)
e|-----------------------------------------------------|  
B|-----------------------------------------------------|     
G|12---9---11---16----14----12---11---16---14--16--14--| 
D|-x---x----x----x-----x-----x----x----x----x---x---x--| 
A|10---7----9---14----12----10----9---14---12--14--12--| 
E|-----------------------------------------------------| 
   8   8    8    4     4    16    8    4    2   1   1

Verse 1
Fast palm muted picking
e|------------------------------------------------| 
B|------------------------------------------------| 
G|-------------5---------7------------------------|       
D|--2----------5---------7---------5------5-------|           
A|--2----------33333333--55555555—-5------5-------|        
E|--00000000-----------------------333333-222222--| 
Pm   .......    .......   .......   .....  .....
This conversation sickens me, please let me out
I’ll take the bus

Verse 1
e|------------------------------------------------| 
B|------------------------------------------------| 
G|-------------5---------7------------------------|       
D|--2----------5---------7---------555555-555555--|           
A|--2----------33333333--55555555—-555555-555555--|        
E|--00000000-----------------------333333-222222--| 
Pm   .......    .......   .......
And though I try to understand, I didn’t know

Bridge
strumming
e|-------------------------------------------------| 
B|-------------------------------------------------| 
G|-------------55-555555--77-777777----------------|       
D|--22-222222--55-555555--77-777777--55-55--55-55--|           
A|--22-222222--33-333333--55-555555--55-55--55-55--|        
E|--00-000000------------------------33-33--22-22--| 

How can you say that I’m a fool? When all I do is help

bridge
e|-------------------------------------------------| 
B|-------------------------------------------------| 
G|-------------55-555555--77-777777----------------|       
D|--22-222222--55-555555--77-777777--55-55--55-55--|           
A|--22-222222--33-333333--55-555555--55-55--55-55--|        
E|--00-000000------------------------33-33--22-22--| 

Well I guess I’m the fool but I know that I’m not your pawn
That feeling is dead and gone

Chorus 
e|----------------------------------------| 
B|----------------------------------------|  
G|--55555555-77777777---------------------| 
D|--55555555-77777777-999999999-55555555--|                            
A|--33333333-55555555-999999999-55555555--| 
E|--------------------777777777-33332222--| 

Pretend you’re invincible and no one can save you
From yourself. 

chorus
e|-----------------------------------------| 
B|-----------------------------------------| 
G|--55555555-------------------------------| 
D|--55555555-77777777-99999999-55555555----| 
A|--33333333-77777777-99999999-55555555----| 
E|-----------55555555-77777777-33332222----| 

Pretend you’re a superhero, a fucking zero.
Trying to save the world.

Solo.
e|-----------------------------|
B|-----------------------------|
G|-----------------------------|
D|-----------------------------|
A|-----------------------------|
E|-----------------------------|

Verse
Fast palm muted picking
e|------------------------------------------------| 
B|------------------------------------------------| 
G|-------------5---------7------------------------|       
D|--2----------5---------7---------5------5-------|           
A|--2----------33333333--55555555—-5------5-------|        
E|--00000000-----------------------333333-222222--| 
Pm   .......    .......   .......   .....  .....
Please don’t remind me of the past
It’s much too late to work it out

Verse
Fast palm muted picking
e|------------------------------------------------| 
B|------------------------------------------------| 
G|-------------5---------7------------------------|       
D|--2----------5---------7---------555555-555555--|           
A|--2----------33333333--55555555—-555555-555555--|        
E|--00000000-----------------------333333-222222--| 
Pm   .......    .......   .......
And though I see the positive
I hear the doubt

Bridge
strumming
e|-------------------------------------------------| 
B|-------------------------------------------------| 
G|-------------55-555555--77-777777----------------|       
D|--22-222222--55-555555--77-777777--55-55--55-55--|           
A|--22-222222--33-333333--55-555555--55-55--55-55--|        
E|--00-000000------------------------33-33--22-22--| 

Go off and hide your life away
These words are obsolete

strumming
e|-------------------------------------------------| 
B|-------------------------------------------------| 
G|-------------55-555555--77-777777----------------|       
D|--22-222222--55-555555--77-777777--55-55--55-55--|           
A|--22-222222--33-333333--55-555555--55-55--55-55--|        
E|--00-000000------------------------33-33--22-22--| 

And I’m crazy to think that you’ll wake up and come around
The silence is made with sound

Chorus 
e|----------------------------------------| 
B|----------------------------------------|  
G|--55555555-77777777---------------------| 
D|--55555555-77777777-999999999-55555555--|                            
A|--33333333-55555555-999999999-55555555--| 
E|--------------------777777777-33332222--| 

Pretend you’re invincible, there’s no one
To tell you that it’s wrong

Chorus 
e|----------------------------------------| 
B|----------------------------------------|  
G|--55555555-77777777---------------------| 
D|--55555555-77777777-999999999-55555555--|                            
A|--33333333-55555555-999999999-55555555--| 
E|--------------------777777777-33332222--| 

They’re all just as scared as I am
It’s over someday soon, it won’t be long

Strum while guitar 2 plays
e|-------------------------------------------------| 
B|-------------------------------------------------| 
G|-------------55-555555--77-777777----------------|       
D|--22-222222--55-555555--77-777777--55-55--55-55--|           
A|--22-222222--33-333333--55-555555--55-55--55-55--|        
E|--00-000000------------------------33-33--22-22--| 

INVINCIBLE!

Guitar 2 (listen for rhythm, beats per note listed below)
e|-----------------------------------------------------|  
B|-----------------------------------------------------|     
G|12---9---11---16----14----12---11---16---14--16--14--| 
D|-x---x----x----x-----x-----x----x----x----x---x---x--| 
A|10---7----9---14----12----10----9---14---12--14--12--| 
E|-----------------------------------------------------| 
   8   8    8    4     4    16    8    4    2   1   1
(end)

figliodicane@yahoo.com for comments/corrections    

Added On December 5th, 2013

SHARE

Comments

blog comments powered by Disqus

VERSIONS

ADVERTISEMENT