NOFX Tabs

All Of Me

4 versions

TAB

            All Of Me Tab by Nofx


ALL OF ME by NOFX. Album : All of Me 7"   and   Physical Fatness
Great chord-aerobic!
A=left guitar   B=right guitar   A&B=both
:
# intro #AX4  (wuaa-effect)   !play both notes 12X!
E-------------------------------------------------------|
B-------------------------------------------------------|
G--5------------------------9---------------------------|
D--5------------------------9---------------------------|
A--3------------------------7---------------------------|
E-------------------------------------------------------|
# intro #BX4
E-------------------------------------------------------|
B-------------------------------------------------------|
G-------------------------------------------------------|
D---5-5-5-5-5-5-5-5-5-5-5-5-6-6-6-6-6-6-6-7-7-7-7-7-7---|
A-------------------------------------------------------|
E-------------------------------------------------------|
:
# verse #A   *=play 12X   #=play 6X                                 >
E------------------------------------------------------------------->
B----*-----------------------*-------*---------------*-------#------>
G---5--------*-------*------7-------9--------*------7-------7----#-->
D---5-------2-------7-------7-------9-------7-------7-------7---5--->
A---3-------2-------7-------5-------7-------7-------5-------5---5--->
E-----------0-------5-----------------------5-------------------3--->
# verse #B                                                          >
E------------------------------------------------------------------->
B----*-----------------------*-----------------------*-------------->
G---5--------*-------*------7--------*-------*------7--------#---#-->
D---5-------2-------7-------7-------2-------7-------7-------3---5--->
A---3-------2-------7-------5-------2-------7-------5-----------5--->
E-----------0-------5---------------0-------5-------------------3--->
>verseA
>-----------------------------------------------------------|
>----*-----------------------*-------*-------#-------#------|
>---5--------*-------*------7------10-------9----#--7----#--|
>---5-------2-------7-------7------10-------9---7---7---5---|
>---3-------2-------7-------5-------8-------7---7---5---5---|
>-----------0-------5---------------------------5-------3---|
>verseB
>-----------------------------------------------------------|
>----*-----------------------*-------#-------#-------#------|
>---5--------*-------*------7------10----#--9----#--7----#--|
>---5-------2-------7-------7------10---6---9---7---7---5---|
>---3-------2-------7-------5-------8-------7---7---5---5---|
>-----------0-------5---------------------------5-------3---|
:
Then play AintroAX2 or BintroBX2, AverseA or BverseB and AintroAX4 or
BintroBX3.5.
That's all of it!
Tabbed by Freddy Allen 4.04.2003.    

Added On December 5th, 2013

SHARE

Comments

blog comments powered by Disqus

VERSIONS

ADVERTISEMENT