NOFX Tabs

All Outta Angst

4 versions

TAB

            All Outta Angst Tab by Nofx


NOFX, all outta angst
tabbed by david oriola, diark76@hotmail.com

Intro
(ska rhythm)

  C     Em     Am      G
--8------7------5------3------| (x2)
--8------8------5------3------|
--9------9------5------4------|
-10-(x4)-9-(x4)-7-(x4)-5-(x4)-|
------------------------------|
------------------------------|

I'm not insane, I'm not bummed out...
(ska rhythm)

  C     Em      Am     G           G        C     Em
--8------7------5------3-----1-----3--------8------7------|
--8------8------5------3------1----3--------8------8------|
--9------9------5------4-------2---4--------9------9------|
-10-(x8)-9-(x8)-7-(x4)-5-(x4)---3--5-(x4)--10-(x8)-9------|(x8)
----------------------------------------------------------|
----------------------------------------------------------|

Society don't bother me...

(distortion)
-------------|
-------------|
-------------|
-7--5--3--5--|
-7--5--3--5--|
-5--3--1--3—-|

then repeat like intro and the verse    

Added On December 5th, 2013

SHARE

Comments

blog comments powered by Disqus

VERSIONS

ADVERTISEMENT