NOFX Tabs

Always Hate Hippies

2 versions

TAB

            Always Hate Hippies Tab by Nofx


NOFX:45 or 46 songs not good enough to get on our other recordsDISC 2:Catching
ZZZZZZZ..... Track:25SONG:Always hate hippies
Play each part a couple of times 
By::guitarfan93

e|----------|-------------------------------------------|
b|----------|-------------------------------------------|
g|-------4--|-------------------------------------------|
d|-------5~-|-OR----------------------------------------|
a|-2~-3~-5~-|------2~-3~-5~-----------------------------|
E|-2~-3~-3~-|------2~-3~-3~-----------------------------|

e|------------------------------------------------------|
b|------------------------------------------------------|
g|------------------------------------------------------|
d|-4--5--5----------------------------------------------|
a|-------5----------------------------------------------|
E|-2--3--3----------------------------------------------|

e|------------------------------------------------------|
b|------------------------------------------------------|
g|------------------------------------------------------|
d|-4-5-5------------------------------------------------|
a|-----5------------------------------------------------|
E|-2-3-3------------------------------------------------|

e|------------------------------------------------------|
b|---hold----whole--------------------------------------|
g|--------as-------note---------------------------------|
d|-4----------------------------------------------------|
a|-2----------------------------------------------------|
E|-2----------------------------------------------------|    

Added On December 5th, 2013

SHARE

Comments

blog comments powered by Disqus

VERSIONS

ADVERTISEMENT