NOFX Tabs

Flossing A Dead Horse

2 versions

TAB

            Flossing A Dead Horse Tab by Nofx


Date: Sat, July 26 2003
Artist: Nofx
Album: So Long And Thanks For All The Shoes
Year: 1997
Track Title: Flossing A Dead Horse


 e--5---5-5------4---4-4------2---2-2------5---5-5
 B--5---5-5------5---5-5------2---2-2------7---7-7
 G--6---6-6------6---6-6------3---3-3------7---7-7
 D--7---7-7------6---6-6------4---4-4------7---7-7
 A--7---7-7------4---4-4------4---4-4------5---5-5 
 E--5---5-5-------------------2---2-2-------------

Chorus

 e-----------------------------------------------------------
 B-----------------------------------------------------------
 G--2--4--6--6--4------4--6--6--4--2--4--6--6--6--7-7-7-7--9-
 D--2--4--6--6--4---6--4--6--6--4--2--4--6--6--6--7-7-7-7--9-
 A--0--2--4--4--2---6--2--4--4--2--0--2--4--4--4--5-5-5-5--7-
 E------------------4----------------------------------------

 I hope you can understand it.... 

------------------------------------
Any Comment : rata88@ciudad.com.ar -*
------------------------------------*
 ************************************    

Added On December 5th, 2013

SHARE

Comments

blog comments powered by Disqus

VERSIONS

ADVERTISEMENT