Now Now Tabs

School Friends

1 versions

TAB

            This is pretty much just a basic layout of the song. all you have to do is figure
out the strum pattern and how many times to hit each note which shouldn't take more than a minute.


Intro/Verse

e|---------------------------------------------------------------|
B|---------------------------------------------------------------|
G|---------------------------------------------------------------|
D|--6--3---------------------------------------------------------|
A|--4--1--3--6---------------------------------------------------|
E|--------1--4---------------------------------------------------|

Chorus

e|---------------------------------------------------------------|
B|---------------------------------------------------------------|
G|---------------------------------------------------------------|
D|--3--6-----6---------------------------------------------------|
A|--1--4--4--4--6------------------------------------------------|
E|--------2-----4------------------------------------------------|

Solo

e|-----------------------------------------------------------------|
B|-----------------------------------------------------------------|
G|-----------------------------------------------------------------|
D|-----------------------------------------------------------------|
A|--8-8-8-8-8-9-6-6-8-9-11---------8-------------------------------|
E|-------------------------9-9-9-9---4-4-4-------------------------|

End of Solo

e|-----------------------------------------------------------------|
B|-----------------------------------------------------------------|
G|-----------------------------------------------------------------|
D|-----------------------------------------------------------------|
A|--8-8-8-8-8-9-6-6-8-9-11-----------------------------------------|
E|---------------------------9-9-9-9-------------------------------|    

Added On December 16th, 2013

SHARE

Comments

blog comments powered by Disqus

ADVERTISEMENT