Oar Tabs

Old Man Time

2 versions

TAB

            Old Man Time Tab by Oar


-----------------------------|
-----------------------------|
OAR
Old Man Time
In Between Now and Then
-----------------------------


Intro/Verse

e---------------------------|
b---------------------------|
g---6-9-6-------------------|
d---7-7-7---7-9-7---6-7-6---|
a-----------9-9-9---7-7-7---|
E---------------------------|

Chorus

e---5---2---0---|
b---5---2---0---|
g---6---2---1---|
d---7---4---2---|
a---7---4---2---|
E---5---2---0---|

------------------------------
Questions/Comments:
joshpwc@yahoo.com

or

oarsa.org    

Added On December 5th, 2013

SHARE

Comments

blog comments powered by Disqus

VERSIONS

ADVERTISEMENT