Oasis Tabs

Cum On Feel The Noize

2 versions

TAB

            #----------------------------------PLEASE NOTE---------------------------------#
#This file is the author's own work and represents their interpretation of the #
#song. You may only use this file for private study, scholarship, or research. #
#------------------------------------------------------------------------------#

CUM ON FEEL THE NOIZE
As recorded by Oasis

Transcribed by unregistered
	

Words by Slade Music by Oasis
Arranged by Oasis

C
x 3 2 0 1 0
	
G/B
x 2 0 0 3 x
	
Am
x 0 2 2 1 0
	
Fsus2
1 3 3 0 1 x

E
0 2 2 1 0 0
	
F
1 3 3 2 1 x
	
G
3 x 0 0 0 x
	
A
x 0 2 2 2 0

Gtr I (F A D G B E) - 'Untitled'
Gtr II (E A D G B E) - 'Untitled'

 Intro
  Q=140
                      C    G/B  Am                        C     G/B  Am
 4/4
                      Gtr II
  W           W        Q Q Q  E  E    +Q  Q E E Q          Q Q  Q  E  E
                       | | |  |  |     |  | | | |          | |  |  |  |
                       / / /  /  /     /  / / / /          / /  /  /  /

  Gtr I
  <           <
  W          +W        H   Q.    E    +E  E E E E E E E    H    Q.    E
|----------|--------|--------------|--------------------|----------------|
|----------|--------|-13---8----10-|-(10)---------------|-13----8----10--|
|----------|--------|-12---7-----9-|--(9)-9-9-9-9-9-9-9-|-12----7-----9--|
|----------|--------|-10---5-----7-|--(7)-7-7-7-7-7-7-7-|-10----5-----7--|
|-3--------|-(3)----|--------------|--------------------|----------------|
|----------|--------|--------------|--------------------|----------------|


                     Fsus2
  +Q Q E E Q         E E E E E E E E    E E E E E E E E
   | | | | |         | | | | | | | |    | | | | | | | |
   / / / / /         / / / / / / / /    / / / / / / / /

   E E E E E E E E   E E E E E E E E    E E E E E E E E
|------------------|-5-5-5-5-5---5-5--|-5-5-5-5-5-5-5-5-|
|-10---------------|-6-6-6-6-6-6-6-6--|-6-6-6-6-6-6-6-6-|
|--9-9-9-9-9-9-9-9-|-5-5-5-5-5-5-5-5--|-5-5-5-5-5-5-5-5-|
|--7-7-7-7-7-7-7-7-|------------------|-----------------|
|------------------|------------------|-----------------|
|------------------|------------------|-----------------|


  G
  Q Q E E E E       +E  E E E E E E E
  | | | | | |        |  | | | | | | |
  / / / / / /        /  / / / / / / /

  E E E E E E E E   +E  E E E E E E E
|-7-8-8-7-7-8-8-7-|-(7)-8-8-8-7-8-8-8---||
|-8-8-8-8-8-8-8-8-|-(8)-8-8-8-8-8-8-8---||
|-7-7-7-7-7-7-7-7-|-(7)-7-7-7-7-7-7-----||
|-----------------|---------------------||
|-----------------|---------------------||
|-----------------|---------------------||


 Verse
  C                 E               Am
  Q Q E E E E       Q Q E E E E     Q Q E E E  E
  | | | | | |       | | | | | |     | | | | |  |
  / / / / / /       / / / / / /     / / / / /  /

  W                 W               W
|-8---------------|---------------|--------------|
|-8---------------|---------------|--------------|
|-----------------|---------------|--------------|
|-----------------|---------------|--------------|
|-----------------|---------------|--------------|
|-----------------|---------------|--------------|


                   F     C     G
  E E Q E E E E    Q Q   Q  E  E         +E E Q E E E E
  | | | | | | |    | |   |  |  |          | | | | | | |
  / / / / / / /    / /   /  /  /          / / / / / / /

  W                              W        W
|----------------|---------------------|-------------------|
|----------------|---------------------|-------------------|
|----------------|---------------------|-------------------|
|----------------|---------------------|-------------------|
|----------------|---------------------|-------------------|
|----------------|---------------------|-------------------|


  F       C    G                     C
   Q  Q   Q E  E   +E E Q E E E E    Q Q E E E E
   |  |   | |  |    | | | | | | |    | | | | | |
   /  /   / /  /    / / / / / / /    / / / / / /

        W                     W      W
|----------------|-----------------|----------------|
|----------------|-----------------|----------------|
|----------------|-----------------|----------------|
|----------------|-----------------|----------------|
|----------------|-----------------|----------------|
|----------------|-----------------|----------------|


  E                Am
  E E Q E E E E    Q Q E E       E E     E E Q   E  E     Q
  | | | | | | |    | | | |       | |     | | |   |  |     |
  / / / / / / /    / / / /       / /     / / /   /  /     /

  W                H     E Q       E     E E E   E +H
|----------------|---------------------|----------------------|
|----------------|---------------------|----------------------|
|----------------|---------7b11r===5---|-7-5-7b9-5-(5)\-------|
|----------------|---------------------|----------------------|
|----------------|---------------------|----------------------|
|----------------|---------------------|----------------------|


  F   C     G                    F   C    G
  Q Q Q E   E   +E E Q E E E E   Q Q Q E  E   +E E Q E E E E
  | | | |   |    | | | | | | |   | | | |  |    | | | | | | |
  / / / /   /    / / / / / / /   / / / /  /    / / / / / / /

      W              W                 W             W
|-------------|----------------|------------|----------------|
|-------------|----------------|------------|----------------|
|-------------|----------------|------------|----------------|
|-------------|----------------|------------|----------------|
|-------------|----------------|------------|----------------|
|-------------|----------------|------------|----------------|


  Am                  G
  Q       Q E E E E   Q Q E   E Q
  |       | | | | |   | | |   | |
  /       / / / / /   / / /   / /

  E E E E E E E   E   E E E     E +E  E E E
|-------------------|--------------------------||
|-------------------|--------------------------||
|-----5---5---7---5-|-7-5-7b9---5-(5)-7-7------||
|---7---7---7-------|--------------------------||
|-------------------|--------------------------||
|-------------------|--------------------------||


 Chorus
  C   G/B  Am
  Q Q Q  E E   +Q      E E +E E E   E
  | | |  | |    |      | |  | | |   |
  / / /  / /    /      / /  / / /   /

  H   Q.   E   +E  E     E    E E     E Q
|-8---3----5-|-(5)-------5----5-------5-5-|
|-8---3----5-|-(5)-------5----5-------5-5-|
|------------|-----7b9----------7b9-------|
|------------|----------------------------|
|------------|----------------------------|
|------------|----------------------------|


  C    G/B   Am
  Q Q  Q   E E    E  Q     E +E E Q
  | |  |   | |    |  |     |  | | |
  / /  /   / /    /  /     /  / / /

  H    Q.    E   +E  E   E    E   E E Q
|-8----3-----5-|-(5)-----5----5---5------|
|-8----3-----5-|-(5)-----5----5---5---5--|
|--------------|-----7b9------------7-5--|
|--------------|-------------------------|
|--------------|-------------------------|
|--------------|-------------------------|


  F   C   G                            F   C    G
  Q Q Q E E        +E  E E E E E E E   Q Q Q E  E      +E  E E E E E E  E
  | | | | |         |  | | | | | | |   | | | |  |       |  | | | | | |  |
  / / / / /         /  / / / / / / /   / / / /  /       /  / / / / / /  /

  H       Q.   E   +E  E E E E E Q     H     Q.    E   +E  E E E E E Q
|----------------|-------------------|---------------|--------------------|
|-1-------1----0-|-(0)-1-1-1-1-0-0---|-1-----1-----0-|-(0)-1-1-1-1-1-1----|
|-2-------0----0-|-(0)-0-0-0-0-0-0---|-2-----0-----0-|-(0)-0-0-0-0-0-0----|
|-3-------2----0-|-(0)-0-0-0-0-0-0---|-3-----2-----0-|-(0)-0-0-0-0-0-0----|
|----------------|-------------------|---------------|--------------------|
|----------------|-------------------|---------------|--------------------|


  C    G/B Am
   Q Q Q E E          +E   E  E  E  E  E  E  E
   | | | | |           |   |  |  |  |  |  |  |
   / / / / /           /   /  /  /  /  /  /  /

   H       Q.    E    +E   E  E  E  E  E  E  E
|------------------|---------------------------|
|-13-------8----10-|-(10)-10-10-10-10-10-10-10-|
|-12-------7-----9-|--(9)--9--9--9--9--9--9--9-|
|-10-------5-----7-|--(7)--7--7--7--7--7--7--7-|
|------------------|---------------------------|
|------------------|---------------------------|


  C    G/B Am
   Q Q Q E E         +Q   E  E +E  E  Q
   | | | | |          |   |  |  |  |  |
   / / / / /          /   /  /  /  /  /

   H       Q.   E    +E   E  E  E  E  E  E  E
|-----------------|----------------------------|
|-13-------8---10-|-(10)-10-10-10-10-10-10-10--|
|-12-------7----9-|--(9)--9--9--9--9--9--9--9--|
|-10-------5----7-|--(7)--7--7--7--7--7--7--7--|
|-----------------|----------------------------|
|-----------------|----------------------------|


  Q Q Q E E        +E  E Q E E E E   E E E E E E E E    E  E E E E E Q
  | | | | |         |  | | | | | |   | | | | | | | |    |  | | | | | |
  / / / / /         /  / / / / / /   / / / / / / / /    /  / / / / / /

  H       Q.   E   +E  E Q E E E E   E E E E E Q   E   +E  E E E E E E E
|----------------|-----------------|-----------------|--------------------||
|-1-------1----0-|-(0)-1-1-1-1-1-1-|-0-1-1-0-0-1---0-|-(0)-1-1-0-0-1-1-1--||
|-2-------0----0-|-(0)-0-0-0-0-0-0-|-0-0-0-0-0-0---0-|-(0)-0-0-0-0-0-0-0--||
|-3-------2----0-|-(0)-0-0-0-0-0-0-|-0-0-0-0-0-0---0-|-(0)-0-0-0-0-0-0-0--||
|----------------|-----------------|-----------------|--------------------||
|----------------|-----------------|-----------------|--------------------||


 Verse 2
  C         E                     Am
  Q Q E E E E     Q Q E E E E     Q Q  E E E E     +E E    Q E  E  Q
  | | | | | |     | | | | | |     | |  | | | |      | |    | |  |  |
  / / / / / /     / / / / / /     / /  / / / /      / /    / /  /  /

  W               W               H      E E E E    E Q      E +H
|---------------|---------------|----------------|---------------------|
|-1-------------|---------------|----------------|---------------------|
|-0-------------|---------------|------------5-5-|--5-7pb9r==5-(5)-----|
|---------------|---------------|----------7-----|---------------------|
|---------------|---------------|----------------|---------------------|
|---------------|---------------|----------------|---------------------|


  F   C   G
  Q Q Q E E       +E  E Q E E E E
  | | | | |        |  | | | | | |
  / / / / /        /  / / / / / /

  H       Q.  E   +E  E E E E E Q
|---------------|------------------|
|-6-------5---3-|-(3)--------------|
|-5-------5---4-|-(4)-5-5-5-5-4-4--|
|-7-------5---5-|-(5)-5-5-5-5-5-5--|
|---------------|------------------|
|---------------|------------------|


  F   C   G
  Q Q Q E E        +E  E Q E    E E     E
  | | | | |         |  | | |    | |     |
  / / / / /         /  / / /    / /     /

  H       Q.   E   +E  E E Q      E     S S E
|----------------|----------------------------|
|-6-------5----3-|-(3)------------------------|
|-5-------5----4-|-(4)---5-7b9====7pb11r5h7-5-|
|-7-------5----5-|-(5)-5----------------------|
|----------------|----------------------------|
|----------------|----------------------------|


  C                  E                Am
   Q   Q E E E E     E E Q E E E E    Q Q E E E E          +E E Q E  E  Q
   |   | | | | |     | | | | | | |    | | | | | |           | | | |  |  |
   /   / / / / /     / / / / / / /    / / / / / /           / / / /  /  /

  +H         H       W                Q   Q   E E E E       E E E E +Q    Q
|------------------|----------------|--------------------|-------------------|
|------------------|----------------|--------------------|----8--------------|
|-(5)\-------------|----------------|---------------7b9==|==8---7-5-(5)------|
|------------------|----------------|-----7---5-7--------|-------------------|
|------------------|----------------|--------------------|-------------------|
|------------------|----------------|--------------------|-------------------|


  F   C   G                            F   C   G
  Q Q Q E E        +E  E Q E E E E     Q Q Q E E
  | | | | |         |  | | | | | |     | | | | |
  / / / / /         /  / / / / / /     / / / / /

  H       Q.   E   +E  E E E E E E E   H       Q.   E
|-8-------8----7-|-(7)-7-7-7-7-7-7-7-|-8-------8----7----|
|-6-------5----8-|-(8)-8-8-8-8-8-8-8-|-6-------6----8----|
|-5-------5----7-|-(7)---------------|-5-------5----7----|
|----------------|-------------------|-------------------|
|----------------|-------------------|-------------------|
|----------------|-------------------|-------------------|


                      Am
  +E  E Q E E E E      Q Q E   E         E    E
   |  | | | | | |      | | |   |         |    |
   /  / / / / / /      / / /   /         /    /

  +E  E E E E E E E    Q.      E        +E   +E   +E   +E
|-(7)-7-7-7-7-7-7-7-|-12-----(12)------(12)-(12)-(12)-(12)-|
|-(8)-8-8-8-8-8-8-8-|-15S====(17)pb21==(17)-(17)-(17)-(17)-|
|-(7)---------------|--------------------------------------|
|-------------------|--------------------------------------|
|-------------------|--------------------------------------|
|-------------------|--------------------------------------|


  G
    Q    Q    E   E Q
    |    |    |   | |
    /    /    /   / /

   +E   +E   +Q       H
|-(12)-(12)-(12)\----------||
|-(17)-(17)-(17)\----------||
|--------------------------||
|--------------------------||
|--------------------------||
|--------------------------||


 Chorus2
  C    G/B Am
   Q Q Q E E          +E   E  E  E  E  E  E  E
   | | | | |           |   |  |  |  |  |  |  |
   / / / / /           /   /  /  /  /  /  /  /

   H       Q.    E    +E   E  E  E  E  E  E  E
|------------------|---------------------------|
|-13-------8----10-|-(10)-10-10-10-10-10-10-10-|
|-12-------7-----9-|--(9)--9--9--9--9--9--9--9-|
|-10-------5-----7-|--(7)--7--7--7--7--7--7--7-|
|------------------|---------------------------|
|------------------|---------------------------|


  C    G/B Am
   Q Q Q E E          +E   E  E  E    +E  E  Q
   | | | | |           |   |  |  |     |  |  |
   / / / / /           /   /  /  /     /  /  /

   H       Q.    E    +E   E  E  E  E  E  E  E
|------------------|---------------------------|
|-13-------8----10-|-(10)-10-10-10-10-10-10-10-|
|-12-------7-----9-|--(9)--9--9--9--9--9--9--9-|
|-10-------5-----7-|--(7)--7--7--7--7--7--7--7-|
|------------------|---------------------------|
|------------------|---------------------------|


  F   G   G                             F   C   G
  Q Q Q E E         +E  E Q E E E E     Q Q Q E E         +E  E Q E  E  Q
  | | | | |          |  | | | | | |     | | | | |          |  | | |  |  |
  / / / / /          /  / / / / / /     / / / / /          /  / / /  /  /

  E E E E E E E E   +E  E E E E E E E   E E E E E E E E   +E  E E E +E  E Q
|-8-8-8-8-8-8-8-7-|-(7)-8-8-8-8-8-8-8-|-8-8-8-8-8-8-8-7-|-(7)----------------|
|-8-8-8-8-8-8-8-8-|-(8)-8-8-8-8-8-8-8-|-8-8-8-8-8-8-8-8-|-(8)----------------|
|-----------------|-------------------|-----------------|-------5-5-(5)---5--|
|-----------------|-------------------|-----------------|-----7---------7----|
|-----------------|-------------------|-----------------|--------------------|
|-----------------|-------------------|-----------------|--------------------|


  C      G/B   Am
   Q  Q  Q   E  E    +Q      E  E +E  E  E  E
   |  |  |   |  |     |      |  |  |  |  |  |
   /  /  /   /  /     /      /  /  /  /  /  /

   H     Q.     E    +E   E  E  E  E  E  E  E
|-----------------|---------------------------|
|-13-----8-----10-|-(10)-10-10-10-10-10-10-10-|
|-12-----7------9-|--(9)--9--9--9--9--9--9--9-|
|-10-----5------7-|--(7)--7--7--7--7--7--7--7-|
|-----------------|---------------------------|
|-----------------|---------------------------|


  C      G/B   Am
   Q  Q  Q   E  E    +Q      E  E +E  E  Q
   |  |  |   |  |     |      |  |  |  |  |
   /  /  /   /  /     /      /  /  /  /  /

   H     Q.     E    +E   E  E  E  E  E  E  E
|-----------------|-----------------------------|
|-13-----8-----10-|-(10)-10-10-10-10-10-10-10---|
|-12-----7------9-|--(9)--9--9--9--9--9--9--9---|
|-10-----5------7-|--(7)--7--7--7--7--7--7--7---|
|-----------------|-----------------------------|
|-----------------|-----------------------------|


  F   C   G
  Q Q Q E E         +E  E Q E E E E     E E E E E E E E    E  E E E E E  E E
  | | | | |          |  | | | | | |     | | | | | | | |    |  | | | | |  | |
  / / / / /          /  / / / / / /     / / / / / / / /    /  / / / / /  / /

  E E E E E E E E   +E  E E E E E E E   E E E E E Q   E   +E  E E E E Q.
|-8-8-8-8-8-8-8-7-|-(7)-8-8-8-8-8-8-8-|-7-8-8-8-7-8---7-|-(7)---8---7-8------||
|-8-8-8-8-8-8-8-8-|-(8)-8-8-8-8-8-8-8-|-8-8-8-8-8-8---8-|-(8)-8-8-8-8-8------||
|-----------------|-------------------|-7-7-7-7-7-7---7-|-(7)-7-7-7-7-7------||
|-----------------|-------------------|-----------------|--------------------||
|-----------------|-------------------|-----------------|--------------------||
|-----------------|-------------------|-----------------|--------------------||


 ReIntro
  C     G/B  Am
  H     Q.    E    +W
  |     |     |     |
  /     /     /     /

  H     Q.    E    +E  E E E       E  E E E
|-8\------------|---------------------------|
|-8\----8----10-|-(10)----------------------|
|-------7-----9-|--(9)---5-7b11===(9)r7-5---|
|-------5-----7-|--(7)-7------------------x-|
|---------------|---------------------------|
|---------------|---------------------------|


  C     G/B  Am
   H    Q.    E    +H             H
   |    |     |     |             |
   /    /     /     /             /

   H    Q.    E    +E  E E E      H
|---------------|----------------------|
|-13----8----10-|-(10)-----5-----(5)---|
|-12----7-----9-|--(9)---5-7b11==(9)---|
|-10----5-----7-|--(7)-7---------------|
|---------------|----------------------|
|---------------|----------------------|


  Fsus2
   E  E  E  E  E  E  E  E    E  E  E  E  E     E    E  E
   |  |  |  |  |  |  |  |    |  |  |  |  |     |    |  |
   /  /  /  /  /  /  /  /    /  /  /  /  /     /    /  /

   E  E  E  E  E  E  E  E    E  E  E  E  E     Q       E
|-------------------------|----------------------------------|
|-10-10-10-10-10-10-10-10-|-10-10-10-10-13b17-13b17---15b19==|
|-10-10-10-10-10-10-10-10-|-10-10-10-10----------------------|
|-10-10-10-10-10-10-10-10-|-10-10-10-10----------------------|
|-------------------------|----------------------------------|
|-------------------------|----------------------------------|


  G
    E   E  E     E  E  E   E  E        E   E  E  E      E  E Q
    |   |  |     |  |  |   |  |        |   |  |  |      |  | |
    /   /  /     /  /  /   /  /        /   /  /  /      /  / /

   +Q      Q        a  S   S  E  Q    +E   E  E  E      Q.   E
|----------------------------------|---------------------------||
|-(15)r---15b19====17-15rp13----13-|-(13)----12-15b19==17\-----||
|----------------------------14----|------14-------------------||
|----------------------------------|---------------------------||
|----------------------------------|---------------------------||
|----------------------------------|---------------------------||


 Verse3
  C               E               Am
  Q Q E E E E     Q Q E E E E     Q Q E E E E       E E Q E       E   E E
  | | | | | |     | | | | | |     | | | | | |       | | | |       |   | |
  / / / / / /     / / / / / /     / / / / / /       / / / /       /   / /

  W               W               H       E E E E   E E E E      +Q     E E
|---------------|---------------|-----------------|-------------------------|
|---------------|---------------|-----------------|-------------------------|
|---------------|---------------|-----------------|-----5-7pb11==(7)r---7-5-|
|---------------|---------------|---------5-7---5-|-6-7---------------------|
|---------------|---------------|-----------------|-------------------------|
|---------------|---------------|-----------------|-------------------------|


  F    C G                                  F   C G
  Q  Q Q E E       +E E Q      E  E  E E    Q Q Q E E      +E E Q E E E E
  |  | | | |        | | |      |  |  | |    | | | | |       | | | | | | |
  /  / / / /        / / /      /  /  / /    / / / / /       / / / / / / /

  H.          Q     Q   E      E  E  E Q    W               E E E E E E E E
|----------------|------------------------|--------------|------------------|
|----------------|------------------------|--------------|------------------|
|-5\-------------|------7b11==(9)-7r-5-7--|-5------------|------5-------5-7-|
|----------------|------------------------|--------------|----5---6-7-5-----|
|----------------|------------------------|--------------|------------------|
|----------------|------------------------|--------------|------------------|


  C               E
  Q Q E E E E     +E E Q E E E E
  | | | | | |      | | | | | | |
  / / / / / /      / / / / / / /

  W                W
|---------------|-----------------|
|---------------|-----------------|
|-5-------------|-----------------|
|---------------|-----------------|
|---------------|-----------------|
|---------------|-----------------|


  Am
  Q Q E E E  E          +E     E  Q       E    E E  E
  | | | | |  |           |     |  |       |    | |  |
  / / / / /  /           /     /  /       /    / /  /

  H       E  Q      E    Q     E  E      +Q      Q
|------------------12-|-------12----------------------|
|-----------15b19-----|-15b19----15b19==(15)r\--------|
|---------------------|-------------------------------|
|---------------------|-------------------------------|
|---------------------|-------------------------------|
|---------------------|-------------------------------|


  F   C  G                               F   C  G
  Q Q Q. E           +E  E Q E E E E     Q Q Q. E
  | | |  |            |  | | | | | |     | | |  |
  / / /  /            /  / / / / / /     / / /  /

  E E E  E E E E E   +E  E E E E E E E   E E E  E E E E E
|-8-8-8--8-8-8-8-7-|-(7)-8-8-8-8-8-8-8-|-8-8-8--8-8-8-8-7----|
|-8-8-8--8-8-8-8-8-|-(8)-8-8-8-8-8-8-8-|-8-8-8--8-8-8-8-8----|
|------------------|-------------------|---------------------|
|------------------|-------------------|---------------------|
|------------------|-------------------|---------------------|
|------------------|-------------------|---------------------|


                       Am                            G
  +E  E E E E E E E    Q    E E E      E   E E       +E E E E E E E E
   |  | | | | | | |    |    | | |      |   | |        | | | | | | | |
   /  / / / / / / /    /    / / /      /   / /        / / / / / / / /

  +E  E E E E E E E    Q.       E     +Q     Q        E E S S S S Q   Q
|-(7)-8-8-8-8-8-8-8--|-----------------------------|------------------------||
|-(8)-8-8-8-8-8-8-8--|-5--------5-----(5)----5-----|------------------------||
|--------------------|-7b11-----7b11==(7)r---7b11--|------5h7p5---5---------||
|--------------------|-----------------------------|----7-------7-----7\----||
|--------------------|-----------------------------|------------------------||
|--------------------|-----------------------------|------------------------||


 Final Chorus
  C    G/B Am
   Q Q Q E E          +Q  E E +E E E      E
   | | | | |           |  | |  | | |      |
   / / / / /           /  / /  / / /      /

   H       Q.    E    +E  E E  E E E     +E   E
|------------------|----------------------------|
|-13-------8----10-|-(10)-----------------------|
|-12-------7-----9-|--(9)--------5-7b11==(7)r-5-|
|-10-------5-----7-|--(7)---5--7----------------|
|------------------|------7---------------------|
|------------------|----------------------------|


  C     G/B Am
   Q  Q Q E E         +Q   E E +E      E  Q
   |  | | | |          |   | |  |      |  |
   /  / / / /          /   / /  /      /  /

  +H.       E E       +Q     E  E     +Q    Q
|-------------------|----------------------------|
|-------------------|----------------------------|
|-(5)---------7b11==|=(7)r---7--7b11==(7)r==7----|
|-------------------|----------------------------|
|-------------------|----------------------------|
|-------------------|----------------------------|


  F   C        G
  Q Q Q.       E     +E  E Q E E E E
  | | |        |      |  | | | | | |
  / / /        /      /  / / / / / /

  E E E  E E E E E   +E  E E E E E E E
|-8-8-8--8-8-8-8-7-|-(7)-8-8-8-8-8-8-8-|
|-8-8-8--8-8-8-8-8-|-(8)-8-8-8-8-8-8-8-|
|------------------|-------------------|
|------------------|-------------------|
|------------------|-------------------|
|------------------|-------------------|


  F   C        G
  Q Q Q.       E     +E E    E E E    E E    E
  | | |        |      | |    | | |    | |    |
  / / /        /      / /    / / /    / /    /

  E E E  E E E E E    E Q      E Q      Q
|-8-8-8--8-8-8-8-7-|---------------------------|
|-8-8-8--8-8-8-8-8-|-----------5---------------|
|------------------|----7b11-----7b11---7b11---|
|------------------|---------------------------|
|------------------|---------------------------|
|------------------|---------------------------|


  C    G/B Am
   Q Q Q E E            +E  E E E E E E E
   | | | | |             |  | | | | | | |
   / / / / /             /  / / / / / / /

   H       Q.   E        Q    S S E E Q   E
|---------------------|---------------------|
|-13-------8----------|---------------------|
|-12-------7----7b11==|==7r---7p5-----5-----|
|-10-------5----------|-----------7-7-------|
|---------------------|---------------------|
|---------------------|---------------------|


  C    G/B Am
   Q Q Q E E            +E  E E E E     E  Q
   | | | | |             |  | | | |     |  |
   / / / / /             /  / / / /     /  /

   H       Q.   E        Q    E E E     E  Q
|---------------------|-------5----------------|
|-13-------8----------|---------5-8b12==8r-5---|
|-12-------7----7b11==|==7r--------------------|
|-10-------5----------|------------------------|
|---------------------|------------------------|
|---------------------|------------------------|


  F   C   G
  Q Q Q E E         +E  E E E E E E E   E E E E E E E E    E  E E E E E Q
  | | | | |          |  | | | | | | |   | | | | | | | |    |  | | | | | |
  / / / / /          /  / / / / / / /   / / / / / / / /    /  / / / / / /

  E E E E E E E E   +E  E E E E E E E   E E E E E E E E   +E  E E E E E E E
|-8-8-8-8-8-8-8-7-|-(7)-8-8-8-8-8-8-8-|-8-8-8-8-8-8-8-7-|-(7)-8-8-8-8-8-8-8-||
|-8-8-8-8-8-8-8-8-|-(8)-8-8-8-8-8-8-8-|-8-8-8-8-8-8-8-8-|-(8)-8-8-8-8-8-8-8-||
|-----------------|-------------------|-7-7-7-7-7-7-7-7-|-(7)-7-7-7-7-7-7-7-||
|-----------------|-------------------|-----------------|-------------------||
|-----------------|-------------------|-----------------|-------------------||
|-----------------|-------------------|-----------------|-------------------||


  C    G/B Am
   Q Q Q E E          +E  E     E  E  E      E   E  E
   | | | | |           |  |     |  |  |      |   |  |
   / / / / /           /  /     /  /  /      /   /  /

   H       Q.    E     E  E     E  E  E      E   Q
|-------------------|----------12-12------------------|
|-13-------8----10/-|----15b19-------15b19==15r-13\---|
|-12-------7-----9/-|---------------------------------|
|-10-------5-----7/-|---------------------------------|
|-------------------|---------------------------------|
|-------------------|---------------------------------|


  C    G/B Am
   Q Q Q E E          +E  E E E  E  E Q
   | | | | |           |  | | |  |  | |
   / / / / /           /  / / /  /  / /

   H       Q.    E    +E  E E E +E  E E E
|------------------|----------------------||
|-13-------8----10-|-(10)-----------------||
|-12-------7-----9-|--(9)---7-5-(5)---5---||
|-10-------5-----7-|--(7)-7---------7-----||
|------------------|----------------------||
|------------------|----------------------||


 Ending Solo
  F   C   G                         F   C   G
  Gtrs I, II
  Q Q Q E E      +E E E E E E E E   Q Q Q E E      +E E E E E E E E
  | | | | |       | | | | | | | |   | | | | |       | | | | | | | |
  / / / / /       / / / / / / / /   / / / / /       / / / / / / / /

          W               W                 W             W
|--------------|------------------|--------------|------------------|
|--------------|------------------|--------------|------------------|
|--------------|------------------|--------------|------------------|
|--------------|------------------|--------------|------------------|
|--------------|------------------|--------------|------------------|
|--------------|------------------|--------------|------------------|


  C   G/B Am                        C   G/B Am
  Q Q Q E E      +E E E E E E E E   Q Q Q E E      +E E E E E E Q
  | | | | |       | | | | | | | |   | | | | |       | | | | | | |
  / / / / /       / / / / / / / /   / / / / /       / / / / / / /

  W                 W                 W             W
|--------------|------------------|--------------|-----------------|
|--------------|------------------|--------------|-----------------|
|--------------|------------------|--------------|-----------------|
|--------------|------------------|--------------|-----------------|
|--------------|------------------|--------------|-----------------|
|--------------|------------------|--------------|-----------------|


  F   C   G                         F   C   G
  Q Q Q E E      +E E E E E E E E   Q Q Q E E      +E E E E E E E E
  | | | | |       | | | | | | | |   | | | | |       | | | | | | | |
  / / / / /       / / / / / / / /   / / / / /       / / / / / / / /

  W               W                   W               W
|--------------|------------------|--------------|------------------|
|--------------|------------------|--------------|------------------|
|--------------|------------------|--------------|------------------|
|--------------|------------------|--------------|------------------|
|--------------|------------------|--------------|------------------|
|--------------|------------------|--------------|------------------|


  C      G/B    Am
  Q    Q Q E    E              +E  E E E E E E E
  |    | | |    |               |  | | | | | | |
  /    / / /    /               /  / / / / / / /

  Gtr I
  Q.       E    Q.     E        E  E E E E E E E
|----------------------------|----------------------|
|-8b12-----8b12-8b12---------|-----------------8b12-|
|----------------------7b11==|==7r-7-5---5-5--------|
|----------------------------|---------7-----7------|
|----------------------------|----------------------|
|----------------------------|----------------------|


  C      G/B    Am
  Q    Q Q E    E              +E  E E  E E E Q
  |    | | |    |               |  | |  | | | |
  /    / / /    /               /  / /  / / / /

  Q.       E    Q.     E        E  E H.
|----------------------------|-------------------|
|-8b12-----8b12-8b12---------|-------------------|
|----------------------7b11==|==7r-7-5-----------|
|----------------------------|-------------------|
|----------------------------|-------------------|
|----------------------------|-------------------|


  C      G/B    Am
  Q    Q Q E    E              +E  E E E E E E E
  |    | | |    |               |  | | | | | | |
  /    / / /    /               /  / / / / / / /

  Q.       E    Q.     E        E  E E E E E E E
|----------------------------|----------------------|
|-8b12-----8b12-8b12---------|-----------------8b12-|
|----------------------7b11==|==7r-7-5---5-5--------|
|----------------------------|---------7-----7------|
|----------------------------|----------------------|
|----------------------------|----------------------|


  C      G/B    Am
  Q    Q Q E    E              +E  E E  E E E Q
  |    | | |    |               |  | |  | | | |
  /    / / /    /               /  / /  / / / /

  Q.       E    Q.     E        E  E H.
|----------------------------|-------------------||
|-8b12-----8b12-8b12---------|-------------------||
|----------------------7b11==|==7r-7-5-----------||
|----------------------------|-------------------||
|----------------------------|-------------------||
|----------------------------|-------------------||


 Ending
  F   C   G
  Q Q Q E E        +E  E E E E E E E
  | | | | |         |  | | | | | | |
  / / / / /         /  / / / / / / /

  E E E E E Q  E   +E  E Q   Q   Q
|-8-8-8-8-8-8--7-|-(7)-8-7---7---7---|
|-8-8-8-8-8-8--8-|-(8)-8-8---8---8---|
|----------------|-------7---7---7---|
|----------------|-------------------|
|----------------|-------------------|
|----------------|-------------------|


  F   C   G
  Q Q Q E E           +E  E E E E E  E E
  | | | | |            |  | | | | |  | |
  / / / / /            /  / / / / /  / /

  E   E   E E E Q E   +E  E Q   Q    E S  S
|-8---8---8-8-8-8-7-|-(7)-8-7---7---12-x-12---|
|-8---8---8-8-8-8-8-|-(8)-8-8---8-------------|
|-------------------|-------7---7-------------|
|-------------------|-------------------------|
|-------------------|-------------------------|
|-------------------|-------------------------|


  C      G/B  A
    Q  Q  Q E  E                 +E        E  E  E  E  E  E  E
    |  |  | |  |                  |        |  |  |  |  |  |  |
    /  /  / /  /                  /        /  /  /  /  /  /  /

   +Q     E S  S E S  S  E  E    +E        E  E  E  S  S  S  S  E E
|-(12)---12-x-12-x-x-12-------|-------------------------------------|
|-----------------------15-13-|-(13)b13.5----13----13h15p13---------|
|-----------------------------|-----------14----14----------14-14---|
|-----------------------------|-------------------------------------|
|-----------------------------|-------------------------------------|
|-----------------------------|-------------------------------------|


  C    G/B  A
   Q Q Q  E E                         +E  E  E  E  E  E       Q
   | | |  | |                          |  |  |  |  |  |       |
   / / /  / /                          /  /  /  /  /  /       /

   S S S  S S S S  S  E  E  S  S  E    E  S  S  E  S  S      +H
|-12-x-x-12-x-x-x-12-12-12-12-------|-----------------------------|
|-----------------------------15p13-|----------13----15b19==(15)--|
|-----------------------------------|----12h14----14--------------|
|-----------------------------------|-----------------------------|
|-----------------------------------|-----------------------------|
|-----------------------------------|-----------------------------|


  F     C       G
   Q  Q  Q    E  E             +E   E  E  E      E   E  E  E
   |  |  |    |  |              |   |  |  |      |   |  |  |
   /  /  /    /  /              /   /  /  /      /   /  /  /

   Q     Q       E  E  E  E    +E   E  E  E      E   E  E  E
|---------------------------|-----------------------17-------|
|-15r---15b19---15-13----13-|-(13)----13-15b19-(17)----15-13-|
|---------------------14----|------14------------------------|
|---------------------------|--------------------------------|
|---------------------------|--------------------------------|
|---------------------------|--------------------------------|


  F      C       G
    Q  Q  Q    E  E           +E  E     E  E     E  E E E
    |  |  |    |  |            |  |     |  |     |  | | |
    /  /  /    /  /            /  /     /  /     /  / / /

   +Q     Q       Q   Q        E  E     E  E     Q    Q
|----------------17---------|-17-------17-------17\-------*|
|-(13)---15b19-------15b19--|----15b19----15b19-----------*|
|---------------------------|-----------------------------*|
|---------------------------|-----------------------------*|
|---------------------------|-----------------------------*|
|---------------------------|-----------------------------*|



Duration Legend
---------------
W - whole; H - half; Q - quarter; E - 8th; S - 16th; T - 32nd; X - 64th; a - acciaccatura
+ - note tied to previous; . - note dotted; .. - note double dotted
Uncapitalized letters represent notes that are staccato (1/2 duration)
Irregular groupings are notated above the duration line
Duration letters will always appear directly above the note/fret number it represents the
duration for.  Duration letters with no fret number below them represent rests.  Multi-
bar rests are notated in the form Wxn, where n is the number of bars to rest for.  Low
melody durations appear below the staff

Tablature Legend
----------------
 h   - hammer-on
 p   - pull-off
 b   - bend
 pb  - pre-bend
 r   - bend release (if no number after the r, then release immediately)
 /\  - slide into or out of (from/to "nowhere")
 s   - legato slide
 S   - shift slide
 - natural harmonic
[n]  - artificial harmonic
n(n) - tapped harmonic
 ~   - vibrato
 tr  - trill
 T   - tap
 TP  - trem. picking
 PM  - palm muting
\n/  - tremolo bar dip; n = amount to dip
 \n  - tremolo bar down
 n/  - tremolo bar up
/n\  - tremolo bar inverted dip
 =   - hold bend; also acts as connecting device for hammers/pulls
  - volume swell (louder/softer)
 x   - on rhythm slash represents muted slash
 o   - on rhythm slash represents single note slash

Misc Legend
-----------
 |  - bar
||  - double bar
||o - repeat start
o|| - repeat end
*|  - double bar (ending)
 :  - bar (freetime)
 $  - Segno
 &  - Coda
Tempo markers -  = BPM(8/16=s8/s16), where s8 = swing 8ths, s16 = swing 16ths    

Added On December 16th, 2013

SHARE

Comments

blog comments powered by Disqus

VERSIONS

ADVERTISEMENT