Of Mice And Men Tabs

When You Cant Sleep At Night

2 versions

TAB

            ----------------------------------------------------------------------------
                When You Cant Sleep at Night - Of Mice & Men
----------------------------------------------------------------------------
Tabbed by: Adudeduh
Email: Adudeduh@gmail.com

Tuning:Drop C (capo 2nd fret on all but the bass string) notes are relative
to capo


I know there may be alot of ghost notes and what not that i may be missing,
but this is basically how the song goes. If you have any corrections or 
additions, feel free to email me and I'll be sure to give you credit for it.
This song is pretty easy to play but it's played pretty quietly, so you'll
have to listen for the correct timing etc... Enjoy!


 Chorus
D|-----------------------0-------0-------------------|
A|-3/5-3/5-3p0----3-------0--12+--0------------------|
F|-------------2/4-0h2/4---0-------0-----------------|
C|---------------------------------------------------|
G|---------------------------------------------------|
C|----------------------0----------------------------|

 Verse
D|-3--3---3---3----2--2---2---2----------------------|
A|--5--5----5--5----3--3----3--3---------------------|
F|---0--0----0--0----2--2----2--2--------------------|
C|---------------------------------------------------|
G|---------------------------------------------------|
C|---------------------------------------------------|


************************************

| /   slide up
| \   slide down
| h   hammer-on
| p   pull-off
| ~   vibrato
| +   harmonic
| x   Mute note
| b   Bend
| pb  Pre-bend
| br  Bend release
| pbr Pre-bend release
| brb Bend release bend

************************************    

Added On December 16th, 2013

SHARE

Comments

blog comments powered by Disqus

VERSIONS

ADVERTISEMENT