Offspring Tabs

Bonus Track On Smash

1 versions

TAB

            Bonus Track On Smash Tab by Offspring


This is a really cool egyptian/arabian song and its not tabbed here. so...
I've very kindly spent time to set this up so you can understand.
There's two guitars. One main one and the high pitched squeeky one in the
background. The hammer ons and pull offs are optional. Just a suggestion.

Guitar 1                            |            Guitar 2
                                    |
|---------------------------
|---------------------------
|---------------------------
|-----1-2h4p2-1-------------
|-2-3-----------3-2-3-2-3-2-
|---------------------------

|---------------------------
|---------------------------
|---------------------------
|-----1-2h4p2-1-------------
|-2-3-----------3-2-3-2-3-2-
|---------------------------

|---------------------------              |--------------------------
|---------------------------              |-----4-5h75-4-------------
|---------------------------              |-4-5----------5-4-5-4-5-4-
|-----1-2h4p2-1-------------              |--------------------------
|-2-3-----------3-2-3-2-3-2-              |--------------------------
|---------------------------              |--------------------------

|---------------------------              |--------------------------
|---------------------------              |-----4-5h75-4-------------
|---------------------------              |-4-5----------5-4-5-4-5-4-
|-----1-2h4p2-1-------------              |--------------------------
|-2-3-----------3-2-3-2-3-2-              |--------------------------
|---------------------------              |--------------------------

-------------------------------------------------------------------------------

|---------------------------
|---------------------------
|-----------2---------------
|-----1-2h4---4-2-1h2p1--1--
|-2-3-----------------------
|---------------------------

|---------------------------              |----------5---------------
|---------------------------              |----4-5h7---7-5-4h5--5-7--
|-----------2---------------              |-4-5----------------------
|-----1-2h4---4-2-1h2-2-4---              |--------------------------
|-2-3-----------------------              |--------------------------
|---------------------------              |--------------------------

|---------------------------
|---------------------------
|-----------2---------------
|-----1-2h4---4-2-1h2p1--1--
|-2-3-----------------------
|---------------------------

|---------------------------              |----------5---------------
|---------------------------              |----4-5h7---7-5-4h5--5-7--
|-----------2---------------              |-4-5----------------------
|-----1-2h4---4-2-1h2-2-4---              |--------------------------
|-2-3-----------------------              |--------------------------
|---------------------------              |--------------------------         

-------------------------------------------------------------------------------

|-------------------------------          |---------5-8--7------------
|----------1--0-1/3-1-0---0-1/3-          |-5-4-5-7-------------------
|--------2--------------2-------          |---------------------------
|-2-1-2-4-----------------------          |---------------------------
|-------------------------------          |---------------------------
|-------------------------------          |--------------------------- 

|-------------------------------          |------11-12/14-12-11------------
|--1-0---0h1-0--0-1--0--0--0--0-          |-12-13--------------13-12-13-12-
|------2------------------------          |--------------------------------
|-------------------------------          |--------------------------------
|-------------------------------          |--------------------------------
|-------------------------------          |--------------------------------

Both Guitars together

Guitar 1
|-------------------------------------------------
|-------------------------------------------------
|-------------------------------------------------
|-9h10p9--7h8p7-5h6p5-4h5p4-2h3p2-1h2p1--1--------
|------------------------------------------3--3-2-
|-------------------------------------------------

Guitar 2
|---------------------------------------------------------
|-12h13p12--10h12p10--8h9p8--7h8p7--5h6p5--4h5p4--4-------
|---------------------------------------------------5---5-
|---------------------------------------------------------
|---------------------------------------------------------
|---------------------------------------------------------

thats about it i think. if you didn't understand it then e-mail me
e-mail = bobby544@mail2rob.com    

Added On December 5th, 2013

SHARE

Comments

blog comments powered by Disqus

ADVERTISEMENT