Olivia Olson Tabs

Little Big Things

1 versions

TAB

            -----------------------------------------------------------------------------
                             Little Big Things – Olivia Olson
-----------------------------------------------------------------------------
Tabbed by: ChrisATD1
Email: christhomduk@yahoo.com

Tuning: EADGBe

Intro

e|---------------------------------------------------------------------------|
B|--3-4-3-4-6-4-3-1-3-4-3-4-6-4-3-1-9~-8~-4~-1~-9~-8~-4~-1~-6~---8~9~--------|
G|---------------------------------------------------------------------------|
D|---------------------------------------------------------------------------|
A|---------------------------------------------------------------------------|
E|---------------------------------------------------------------------------|

Verse

e|---------------------------------------------------------------------------|
B|-3-1-3-1-3-1-3-1-3-1-3-1-3-1-3-1-1~-1—1~-1---------------------------------|
G|---------------------------------------------------------------------------| (2x)
D|---------------------------------------------------------------------------|
A|---------------------------------------------------------------------------|
E|---------------------------------------------------------------------------|

e|---------------------------------------------------------------------------|
B|--3~-1~-3~-1~--------------------------------------------------------------|
G|--------------3~-1~-0-3~-1~-0-3~-1~-0-3~-1~-3-5~-3-5~----------------------|
D|---------------------------------------------------------------------------|
A|---------------------------------------------------------------------------|
E|---------------------------------------------------------------------------|

Chorus

e|---------------------------------------------------------------------------|
B|--3-4-3-4-6-4-3-1-3-4-3-4-6-4-3-1-9~-8~-4~-1~-9~-8~-4~-1~-6~---8~9~--------|
G|---------------------------------------------------------------------------| (2x)
D|---------------------------------------------------------------------------|
A|---------------------------------------------------------------------------|
E|---------------------------------------------------------------------------|

Repeat Verse
Repeat Chorus

Bridge

e|---------------------------------------------------------------------------|
B|--3~-1~----------------------------------------3v~----------------------------|
G|--------------3~-1~-------3~-1~--------------------------------------------|
D|--------5~-3~-------5~-3~-------5~-3~---2/3~-------------------------------|
A|---------------------------------------------------------------------------|
E|---------------------------------------------------------------------------|

Repeat Chorus

Last Chorus

e|---------------------------------------------------------------------------|
B|--3-4-3-4-6-4-3-1-3-4-3-4-6-4-3-1-1h3-4-6~-1h3-4-6~------------------------|
G|---------------------------------------------------------------------------| (3x)
D|---------------------------------------------------------------------------|
A|---------------------------------------------------------------------------|
E|---------------------------------------------------------------------------|

e|---------------------------------------------------------------------------|
B|--3-4-3-4-6-4-3-1-3-4-3-4-6-4-3-1-1h3-4-6~-9p8-4-1~------------------------|
G|---------------------------------------------------------------------------|
D|---------------------------------------------------------------------------|
A|---------------------------------------------------------------------------|
E|---------------------------------------------------------------------------|

************************************

| /   slide up
| \   slide down
| h   hammer-on
| p   pull-off
| ~   vibrato
| +   harmonic
| x   Mute note
| b   Bend
| pb  Pre-bend
| br  Bend release
| pbr Pre-bend release
| brb Bend release bend

************************************    

Added On December 16th, 2013

SHARE

Comments

blog comments powered by Disqus

ADVERTISEMENT