Orange and Lemons Tabs

Wag Kang Matakot

1 versions

TAB

            Wag Kang Matakot Tab by Orange And Lemons


Huwag kang Matakot
Revived by: Orange and Lemons from Eraserheads
album: Electromagnetic Jam


Intro:
e|------------------------------------|
B|-11----8-8----10----8-8-----11-11---|
G|--8----8-8-----8----8-8------8--8---|
D|------------------------------------|
A|------------------------------------|
E|------------------------------------|

II  G Bm A D
Huwag kang matakot 'di mo ba alam nandito
G Bm A D
lang ako Sa iyong tabi 'di kita pababa- yaan kailan-

Refrain 1
e|----------------------------|
B|----------------------------|
G|-7-7~~----------------------|
D|-------5/8--7--5~~-5--3-----|
A|----------------------------|
E|----------------------------|
man.. at kung ikaw ay mahulog sa bangin. . .

C Cm G G7
e|----------------------------|
B|----------------------------|
G|-7-7~~----------------------|
D|-------5/8--7--5--3---------|
A|----------------------------|
E|----------------------------|
ay sasaluhin ki-

G
e|----------------------2---------------------------------------------|
B|----------------------2---------------------------------------------|
G|----------------------0---------------------------------------------|
D|-0---0------------0---0---------------------------------------------|
A|-------3--3-2-0-2-----2---------------------------------------------|
E|----------------------3---------------------------------------------|
ta. . .

Chorus 1:
                       G                     Bm
Huwag kang matakot na matulog mag-isa
    Am
Kasama mo naman. . .

D
Ako (ako)

Huwag kang matakot na matulog mag-isa
    Am
Kasama mo naman. . .

D
Ako (ako)

G Bm Am
e|--------------------------------------------------------------------|
B|------15B-----------------------------------------------------------|
G|-11---------10---10-10-10-8-----------------------------------------|
D|--------------------------------------------------------------------|
A|--------------------------------------------------------------------|
E|--------------------------------------------------------------------|
'wag kang matakot ah ah ah ah. . . (intro lead)

II  (do chords/tabs of I)
huwag kang matakot
dahil ang buhay mo'y walang
katapusan. . . makapangyarihan ang pag-ibig
na hawak mo sa iyong kamay



Refrain 2 (do chords/ tabs of refrain 2)
ikaw ang Diyos at hari ng iyong mundo
matakot sila sa'yo



Chorus 2 (do chords/tabs of Chorus 1, first two lines, 4x, last lines, 1x)
Huwag kang matakot na matulog mag-isa
Kasama mo naman ako
Huwag kang matakot na umibig at lumuha
Kasama mo naman ako
Huwag kang matakot na magmukhang tanga
Kasama mo naman ako
Huwag kang matakot sa hindi mo pa makita
Kasama mo naman ako
Huwag kang matakot. . . ah ah ah ah


Ad lib
(break)
e|-------------------------   -----------|
B|-11----8-8----10----8-8--   ---11-11---|
G|--8----8-8-----8----8-8--6x ----8--8---|
D|-------------------------   -----------|
A|-------------------------   -----------|
E|-------------------------   -----------|

(repeat I, two frets higher)



Coda
A                            C#m
Huwag kang matakot (huwag kang matakot)
       Bm
'di kita pababa-
E
e|------------------------------------|
B|------------------------------------|
G|------------------------------------|
D|------------------------------------|
A|------------------------------------|
E|----5---7-7---5---7-7---5-7---------|
yaan kailan . . .
A
man . . .

(coda, 4x to fade) 

Kinapa ni: Michael Anyog

Hello sa dati kong Kabanda yung AUDIO BARANGAY sa Palawan
Tsaka sa dati kong Love si Dianne Az***    

Added On December 5th, 2013

SHARE

Comments

blog comments powered by Disqus

ADVERTISEMENT