Orange Goblin Tabs

Lunarville 7 Airlock 3

1 versions

TAB

            Song: Lunarville, Airlock 3
                    Artist: Orange Goblin
           transcribed by ear by: ChriS Povey(metallica-best@hotmail.co.uk)

All Guitars Tuned Down A Step: DGCFAD

Intro w/wah     roll guitar volume back for gritty clean

|-------------------------------------------------------|
|-------------------------------------------------------|
|-5--------5---------5-----7--7-5----(5)-7--7-5----5----|
|---7-5-7----7-5-7-----7-5--------7-------------7-------|
|-------------------------------------------------------|
|-------------------------------------------------------|

  Riff    both guitars full on grind
|----------------------------------------------------|
|----------------------------------------------------|
|----------------------------------------------------|
|-3--------3---------3-----5--5-3-----5--5-3----3----|
|---5-3-5----5-3-5-----5-3--------5----------5-------|
|----------------------------------------------------|

  Verse
|------------------------------------------------|
|------------------------------------------------|
|------------------------------------------------|
|------------------------------------------------|
|-----------------------------------3-3-0-3-5----|
|-5-5-3-5-5-3-5-5-3-5-3-2-2-0-2-2-0--------------|

  Chorus
|--------------------------------------------|
|-------------------------------------5------|
|-------------------------------------5------|
|-7-7-7-7-5-----------------------5-7---7----|
|-----------7-7-7-7-6-5-5-5-5-7-7------------|
|--------------------------------------------|

  Bridge   palm mute
|------------------------------|
|------------------------------|
|------------------------------|
|------------------------------|
|-------------------7----------|
|-5-3-2-2-3-5--5-5----5-3-5----|


Intro   6x
Riff    4x
Verse   6x
Riff    2x  slow
Verse   5x
Chorus  4x
Bridge  16x  solo over the last four
Verse   5x
Chorus  4x
Riff    4x with an extra note held to feedback    

Added On December 16th, 2013

SHARE

Comments

blog comments powered by Disqus

ADVERTISEMENT