Orphaned Land Tabs

New Jerusalem

1 versions

TAB

            -------------------------------------------------------------------------------
			     NEW JERUSALEM - Orphaned Land
-------------------------------------------------------------------------------
Tabbed by: gassmdq
Email: gabrielsirio (at) gmail

My second tab.. as always, corrections are welcome. enjoy.


Tuning: Drop D

(1:12)
e|---------|---------------------------------|-------------------------------|
B|---------|---------------------------------|-------------------------------|
G|---------|---------------------------------|-------------------------------|
D|---------|---------------------------------|-------------------------------|
A|-7-(x22)-|-5-(x6)------0-2-3-2h3p2-0-2-0---|-3-(x6)--2-3-2-3-2-3-5--3-2-3--|
E|-7-------|-5-------3-5-------------------5-|-3-------2-3-2-3-2-3-5--3-2-3--|
   *         *                                 *

e|--------|-----------------------------------------------------|------------|
B|--------|-----------------------------------------------------|------------|
G|--------|-----------------------------------------------------|------------|
D|--------|--------------------------2--------------------------|------------|
A|-5--3-2-|-2-(x11)--3-(x5)--0-(x4)----3-2-0--------------------|-2-(x17)----|
E|-5--3-2-|-2--------3-------0---------------5-3-2-3-2-0-2-3-2--|-2----------|
            *        *       *                                    *

(1:44)
e|---------------------------------------|-----------------------------------|
B|---------------------------------------|-----------------------------------|
G|---------------------------------------|-----------------------------------|
D|---------------------------------------|-----------------------------------|
A|-7---7---5-------0-2-3-2h3p2-0-0h2-0---|-3---2-3-2-3-2-3-5--3-2-3-5--3-2---|
E|-7---7---5---3-5---------------------5-|-3---2-3-2-3-2-3-5--3-2-3-5--3-2---|
   lr  lr  lr                              lr

e|-------------------------------------------------------|-------------------|
B|-------------------------------------------------------|-------------------|
G|-------------------------------------------------------|-------------------|
D|----------------------------2--------------------------|-------------------|
A|-2/14--2/14--14-15-14-12------3-2-0--------------------|-2-(x17)-----------|
E|-2/14--2/14--14-15-14-12------------5-3-2-3-2-0-2-3-2--|-2-----------------|
              (je ru sa lem)                               *


(3:05)
Repeat all over


************************************

| *   palm mute
| /   slide up
| \   slide down
| h   hammer-on
| p   pull-off
| lr  let ring

************************************    

Added On December 16th, 2013

SHARE

Comments

blog comments powered by Disqus

ADVERTISEMENT