Oval Opus Tabs

Let Go

1 versions

TAB

            Let Go Tab by Oval Opus


Standard Tuning
Tabbed by Colin Paloma

Chords Used :
D1     xx0230
D2     xx0220
G      320033
Asus   x02200


The song is really simple...Just start on the D1 chord, then to the D2
and finally the G for the intro/verses.

I guess the end finally came
Truth is, I'm the one to blame
And I'm sorry
See I never thought
That it would end this way
Silent, with nothing left to say
I'm so sorry...
E|--------------------------------------------3--3----3-3---|
B|--------3--2--2--2h3---------3--2--2--2h3---3----3--3---3-|
G|------2----2--2--2---------2----2--2--2-----0-------0-----|
D|----0------0--0--0-------0------0--0--0-----0-------0-----|
A|--------------------------------------------2-------2-----|
E|--------------------------------------------3-------3-----|


Now the hardest part is here
Hanging up the phone
And wishing you were here
E|--------------3------------3--3--------|
B|----------0---3--------0---3----3------|
F|--------2-2---0------2-2---0------0----|
D|------2---2---0----2---2---0--------0--|
A|----0-----0---2--0-----0---2-----------|
E|--------------3------------3-----------|

I gotta let go...
I gotta let go...
I gotta let go,
It's over...

** For this part, follow the same pattern as the intro/verse
But instead of picking through, strum the chords. **

That's pretty much it...Really, there's a lot of room to
make up your own accent to the song, but those are the basics.    

Added On December 5th, 2013

SHARE

Comments

blog comments powered by Disqus

ADVERTISEMENT