Overkill Tabs

The Years Of Decay

2 versions

TAB

            #----------------------------------PLEASE NOTE---------------------------------#
#This file is the author's own work and represents their interpretation of the #
#song. You may only use this file for private study, scholarship, or research. #
#------------------------------------------------------------------------------#

THE YEARS OF DECAY
As recorded by Overkill
(From the 1989 Album THE YEARS OF DECAY)

Transcribed by B. Johnson
	

Words and Music by Overkill
Arranged by Overkill

Gtr I (E A D G B E) - 'Untitled'
Gtr II (E A D G B E) - 'Untitled'
Gtr III (E A D G B E) - 'Untitled'
Gtr IV (E A D G B E) - 'Untitled'

 Intro
  Moderately Q=112
  E5
 4/4
  Gtr I
  W            E  E E E E E E E    E  E E E E E a E E
|----------||-------------------|---------------------|
|----------||-----------0-------|---------0-----------|
|----------||---------0---0-----|-------0---0---------|
|----------||-------4-------4---|-----4-------4-------|
|----------||-----2-----------2-|--3------------3s5-3-|
|----------||--0----------------|---------------------|
|
| Gtr II
| <
| W           +W                  +W
|----------||-------------------|---------------------|
|----------||-------------------|---------------------|
|----------||-------------------|---------------------|
|-2--------||-(2)---------------|-(2)-----------------|
|-2--------||-(2)---------------|-(2)-----------------|
|-0--------||-(0)---------------|-(0)-----------------|


                                            Emadd9
   E  E E E E E E E    E  E E E E E a E E    W
|-------------------|---------------------|-^0----||
|-----------0-------|---------0-----------|-^0----||
|---------0---0-----|-------0---0---------|-^0----||
|-------4-------4---|-----4-------4-------|-^4----||
|-----2-----------2-|--3------------3s5-3-|-^2----||
|--0----------------|---------------------|-^0----||
|
| +W                  +W                     W
|-------------------|---------------------|-------||
|-------------------|---------------------|-------||
|-------------------|---------------------|-------||
|-(2)---------------|-(2)-----------------|-------||
|-(2)---------------|-(2)-----------------|-------||
|-(0)---------------|-(0)-----------------|-------||


 1st, 2nd, 3rd Verses
  $
  $$
  E E E E E E E E   E E E E E E a E E   E E E E E E E E   E E E E E E a E E
|-----------------|-------------------|-----------------|---------------------|
|---------0-------|-------0-----------|---------0-------|-------0-------------|
|-------0---0-----|-----0---0---------|-------0---0-----|-----0---0-----------|
|-----4-------4---|---4-------4-------|-----4-------4---|---4-------4---------|
|---2-----------2-|-3-----------3s5-3-|---2-----------2-|-3-----------3s5-3---|
|-0---------------|-------------------|-0---------------|---------------------|


  E E E E E E E E   E E E E E E a E E   E E E E E E E E   E E E E E E E E
|-----------------|-------------------|-----------------|-----------------|
|---------0-------|-------0-----------|---------0-------|---------1-----1-|
|-------0---0-----|-----0---0---------|-------0---0-----|-----0-----0-----|
|-----4-------4---|---4-------4-------|-----4-------4---|---2---2-----2---|
|---2-----------2-|-3-----------3s5-3-|---2-----------2-|-3---------------|
|-0---------------|-------------------|-0---------------|-----------------|


                E5/B
  E E E E E E E E   E E E E E E E E   E E E E E E E E
|---------------0-|-----------------|-----------------|
|---------3-----0-|---------0-------|-----------------|
|-----0-----0-----|-------0---0-----|-------0-------0-|
|---4---4-----4---|-----4-------4---|-----4-------4---|
|-5---------------|---2-----------2-|---2-------2-----|
|-----------------|-0---------------|-3-------2-------|


  E E E E E E E E   E E E E E E a E E   E E E E E E E E   E E E E E E a E E
|-----------------|-------------------|-----------------|---------------------|
|---------0-------|-------0-----------|---------0-------|-------0-------------|
|-------0---0-----|-----0---0---------|-------0---0-----|-----0---0-----------|
|-----4-------4---|---4-------4-------|-----4-------4---|---4-------4---------|
|---2-----------2-|-3-----------3s5-3-|---2-----------2-|-3-----------3s5-3---|
|-0---------------|-------------------|-0---------------|---------------------|


  E E E E E E E E   E E E E E E a E E   E E E E E E E E   E E E E E E E E
|-----------------|-------------------|-----------------|-----------------|
|---------0-------|-------0-----------|---------0-------|---------1-----1-|
|-------0---0-----|-----0---0---------|-------0---0-----|-----0-----0-----|
|-----4-------4---|---4-------4-------|-----4-------4---|---2---2-----2---|
|---2-----------2-|-3-----------3s5-3-|---2-----------2-|-3---------------|
|-0---------------|-------------------|-0---------------|-----------------|


                E5/B
  E E E E E E E E   E E E E E E E E   E E E E E E E E
|---------------0-|-----------------|-----------------|
|---------3-----0-|---------0-------|-----------------|
|-----0-----0-----|-------0---0-----|-------0-------0-|
|---4---4-----4---|-----4-------4---|-----4-------4---|
|-5---------------|---2-----------2-|---2-------2-----|
|-----------------|-0---------------|-3-------2-------|


  E E E E E E E E   E E E E E E E E   E E E E E E E E   E E E E E E E E
|-----------------|-----------------|-----------------|-----------------|
|---------0-------|-----------------|---------0-------|-----------------|
|-------0---0-----|-------0-------0-|-------0---0-----|-------0-------0-|
|-----4-------4---|-----4-------4---|-----4-------4---|-----4-------4---|
|---2-----------2-|---2-------2-----|---2-----------2-|---2-------2-----|
|-0---------------|-3-------2-------|-0---------------|-3-------2-------|


           To Coda                                        To Dbl. Coda
  E E E E E E E E   E E E E E E E E   E E E E E E E E   E E E E E E E E
|-----------------|-----------------|-----------------|-----------------||
|---------0-------|-----------------|---------0-------|-----------------||
|-------0---0-----|-------0-------0-|-------0---0-----|-------0-------0-||
|-----4-------4---|-----4-------4---|-----4-------4---|-----4-------4---||
|---2-----------2-|---2-------2-----|---2-----------2-|---2-------2-----||
|-0---------------|-3-------2-------|-0---------------|-3-------2-------||


 Guitar Solo #1
   E  E E E E E E E   E E    E  E E E a E   E
|-------------------|-------------------------|
|-----------0-------|-----------0-------------|
|---------0---0-----|--------0----0-----------|
|-------4-------4---|---4-----------4---------|
|-----2-----------2-|-3---------------3s5---3-|
|--0----------------|-------------------------|
|
| Gtr III
|  ~~~                    ~~~~~~
|  H.           E E   E.  S +Q    Q     S S E
|-------------------|-------------------------|
|-------------------|-------------------------|
|-------------------|-7h==9-(9)---7-----7h9p7-|
|-/9------------7-9-|-------------------------|
|-------------------|-------------------------|
|-------------------|-------------------------|


  E E E E E E E E        E      E  E E E E a E  E
|-----------------|-------------------------------|
|---------0-------|------------------0------------|
|-------0---0-----|----------------0---0----------|
|-----4-------4---|-------------4--------4--------|
|---2-----------2-|------3-----------------3s5--3-|
|-0---------------|-------------------------------|
|
| ~
| W                 a a  E     +E  E E Q     E  E
|-----------------|-------------------------------|
|-----------------|-----10b12r(10)-7-8-------8-10-|
|-----------------|---x----------------9----------|
|-9---------------|-x-----------------------------|
|-----------------|-------------------------------|
|-----------------|-------------------------------|


  E  E E E E E     E E    E E E E E      E a E E
|----------------------|-----------------------------|
|----------0-----------|--------0--------------------|
|--------0---0---------|------0---0------------------|
|------4-----------4---|----4------------4-----------|
|----2---------------2-|--3----------------3s5-3-----|
|-0--------------------|-----------------------------|
|
|                                 |-3-|        |-3-|
| H.           a a E E    Q   E E S S S  Q     S S S
|------------------7-8-|-10---8-7-7h8p7--------7h8p7-|
|----------------x-----|----------------10-----------|
|-7------------x-------|-----------------------------|
|----------------------|-----------------------------|
|----------------------|-----------------------------|
|----------------------|-----------------------------|


   E  E E E   E E  E E   E E E E  E   E  E  E
|----------------------|-------------------------------|
|-------------0--------|----------1---------1----------|
|---------0-----0------|-----0--------0----------------|
|-------4----------4---|---2---2---------2-------------|
|-----2--------------2-|-3-----------------------------|
|--0-------------------|-------------------------------|
|
|  ~~~
|  Q.     E   E E  E E   Q   E E +E   E  E  S    +S
|--------------------7-|-8---7-8-(8)-10-----7b8==(7)r==|
|-10--------/10-8-10---|----------------(8)------------|
|----------------------|-------------------------------|
|----------------------|-------------------------------|
|----------------------|-------------------------------|
|----------------------|-------------------------------|


                      Free Time Q=120
                      Emadd9
   E  E E E E E E E    W
|-----------------0-|-^0-------------------------|
|-----------3-----0-|-^0-------------------------|
|-------0-----0-----|-^0-------------------------|
|-----4---4-----4---|-^4-------------------------|
|--5----------------|-^2-------------------------|
|-------------------|-^0-------------------------|
|
|                                           ~~~
|                                    |-3-|
| +Q    Q   Q   E E    E    +E  E  E S S S  Q.
|-(7)-----------7-8-|--8b10r(8)-7-10-7h8p7-10----|
|-------------------|----------------------------|
|-------------------|----------------------------|
|-------------------|----------------------------|
|-------------------|----------------------------|
|-------------------|----------------------------|


  H.=H           Q=100
                  D.S. al Coda
                   G     F#
  +W               W
|-(0)------------:--------------||
|-(0)------------:--------------||
|-(0)------------:--------------||
|-(4)------------:--------------||
|-(2)------------:--------------||
|-(0)------------:--------------||
|
|  S S E H.        Q  Q  Q  Q
|----------------:-3-----2------||
|--7h8p7---------:--------------||
|--------9-------:--------------||
|----------------:--------------||
|----------------:--------------||
|----------------:-3-----2------||


  Moderately Q=112
  &
                                       Emadd9
                                      2/4      4/4
                                                              >
  E E E E E E E E   E E E E E E E E     H       +W           +W
|-----------------|-----------------||-^0----||-(0)--------|-(0)----||
|-----------------|---------0-------||-^0----||-(0)--------|-(0)----||
|-------0-------0-|-------0---0-----||-^0----||-(0)--------|-(0)----||
|-----4-------4---|-----4-------4---||-^4----||-(4)--------|-(4)----||
|---2-------2-----|---2-----------2-||-^2----||-(2)--------|-(2)----||
|-3-------2-------|-0---------------||-^0----||-(0)--------|-(0)----||


  Faster Q=132
  G5      F#5         E5
  Gtr II
                      PM--------------------|   PM--|
  E E E E E E E E     E E E E E E E E   E E E E E E E E  4x
|-----------------||------------------|------------------||
|-----------------||o-----------------|-----------------o||
|-----------------||------------------|-------0-------0--||
|-----------------||------------------|-----4-------4----||
|-5-5-5-5-4-4-4-4-||o-2-2-2-2-2-2-2-2-|---2-------2-----o||
|-3-3-3-3-2-2-2-2-||--0-0-0-0-0-0-0-0-|-3-------2--------||


 Bridge
  E5F#G5  B5  G5A5                    E5F#G5    D5    D5C5
        PM  PM      PM--|   PM--|           PM    PM        PM--|   PM--|
  E E E E E E E E   E E E E E E E E   E E E E a E E a E E   E E E E E E E E
|-----------------|-----------------|---------------------|-------------------|
|-----------------|-----------------|---------------------|-------------------|
|-----------------|-------0-------0-|---------------------|-------0-------0---|
|---------4-------|-----4-------4---|---------5s7---5s7-5-|-----4-------4-----|
|-2-4-5-0-2-0-5-7-|---2-------2-----|-2-4-5-0-3s5-0-3s5-3-|---2-------2-------|
|-0-2-3-------3-5-|-3-------2-------|-0-2-3---------------|-3-------2---------|


  E5F#G5  B5  G5A5                    E5F#G5    D5    D5C5
        PM  PM      PM--|   PM--|           PM    PM        PM--|   PM--|
  E E E E E E E E   E E E E E E E E   E E E E a E E a E E   E E E E E E E E
|-----------------|-----------------|---------------------|-------------------|
|-----------------|-----------------|---------------------|-------------------|
|-----------------|-------0-------0-|---------------------|-------0-------0---|
|---------4-------|-----4-------4---|---------5s7---5s7-5-|-----4-------4-----|
|-2-4-5-0-2-0-5-7-|---2-------2-----|-2-4-5-0-3s5-0-3s5-3-|---2-------2-------|
|-0-2-3-------3-5-|-3-------2-------|-0-2-3---------------|-3-------2---------|


  F#5                                 F#5
  PM--------------------|   PM--|     PM--------------------|   PM--|
  E E E E E E E E   E E E E E E E E   E E E E E E E E   E E E E E E E E
|-----------------|-----------------|-----------------|------------------|
|-----------------|-----------------|-----------------|------------------|
|-----------------|-------6-------6-|-----------------|-------6-------6--|
|-----------------|-----6-------6---|-----------------|-----6-------6----|
|-4-4-4-4-4-4-4-4-|---4-------4-----|-4-4-4-4-4-4-4-4-|---4-------4------|
|-2-2-2-2-2-2-2-2-|-5-------4-------|-2-2-2-2-2-2-2-2-|-5-------4--------|


  F#5                                 F#5
  PM--------------------|   PM--|     PM--------------------|   PM--|
  E E E E E E E E   E E E E E E E E   E E E E E E E E   E E E E E E E E
|-----------------|-----------------|-----------------|------------------||
|-----------------|-----------------|-----------------|------------------||
|-----------------|-------6-------6-|-----------------|-------6-------6--||
|-----------------|-----6-------6---|-----------------|-----6-------6----||
|-4-4-4-4-4-4-4-4-|---4-------4-----|-4-4-4-4-4-4-4-4-|---4-------4------||
|-2-2-2-2-2-2-2-2-|-5-------4-------|-2-2-2-2-2-2-2-2-|-5-------4--------||


  A5      A5B5  C5    G/B    C5   A5        B5     D5    C5  G/BC5
  H.      E E    H     Q   E  E   H.      E E    a  H     Q   E  E
|-------------|-----------------|-------------|--------------------|
|-------------|-----------------|-------------|--------------------|
|-------------|-----------------|-------------|--------------------|
|-------------|-----------------|-------------|--------------------|
|-7-------7-9-|-10----10--10-10-|-7-------7-9-|-10s12----10--10-10-|
|-5-------5-7-|--8-----7---7--8-|-5-------5-7-|--8s10-----8---7--8-|


  A5      A5B5  C5    G/B    C5   A5         F5    E5
  H.      E E    H     Q   E  E   W           H    H
|-------------|-----------------|----------|------------||
|-------------|-----------------|----------|------------||
|-------------|-----------------|----------|------------||
|-------------|-----------------|----------|-10----9----||
|-7-------7-9-|-10----10--10-10-|-7--------|--8----7----||
|-5-------5-7-|--8-----7---7--8-|-5--------|------------||


 Guitar Solo #2
  E5
  PM--------------------------------|         PM----|
  E   E E E E E E E    E    E       E       E E   E  E  E
|-------------------|-----------------------------------------|
|-------------------|-----------------------------------------|
|-------------------|-----------------------0-----------0-----|
|-------------------|---------------4----------------4--------|
|-2---2-2-2-2-2-2-2-|-------2---------------------2-----------|
|-0---0-0-0-0-0-0-0-|--3----------------------2---------------|
|
| Gtr IV
|                      |-------3-------|                |-3-|
| W                    Q       Q       Q      Q     +E  S S S
|-------------------|-----------------------------------------|
|-------------------|-----------------------------------------|
|-2b4---------------|-b4---b4---b4---2b4r==(2)-0h2p0-|
|-------------------|-----------------------------------------|
|-------------------|-----------------------------------------|
|-------------------|-----------------------------------------|


  E5
  PM--------------------------------|        PM---|
  E  E E E E E  E E    E     E      E     E  E  E  E E
|-------------------|------------------------------------|
|-------------------|------------------------------------|
|-------------------|---------------------0----------0---|
|-------------------|---------------4--------------4-----|
|-2--2-2-2-2-2--2-2-|--------2------------------2--------|
|-0--0-0-0-0-0--0-0-|--3---------------------2-----------|
|
|                                   |-3-|
| H.            E e    E    +S   S  S S S E +Q     E E
|-------------------|------------------------------------|
|-------------------|------------------------------------|
|-----------------2-|-[4]b6r(4)p[2]h4p2p0------------7---|
|-2------------/4---|---------------------2-(2)---/9-----|
|-------------------|------------------------------------|
|-------------------|------------------------------------|


  E5                                               E5
  PM-----------------------------|       PM--|     PM---------------------------------------------
  E E  E  E  E   E    E E   E  E E     E E E E E   E     E           E           E   E  E E  E
|-------------------------|----------------------|-----------------------------------------------|
|-------------------------|----------------------|-----------------------------------------------|
|-------------------------|------------0-------0-|-----------------------------------------------|
|-------------------------|------4-----------4---|-----------------------------------------------|
|-2-2--2--2--2---2----2-2-|----2-----------2-----|-2-----2-----------2-----------2---2--2-2--2---|
|-0-0--0--0--0---0----0-0-|-3------------2-------|-0-----0-----------0-----------0---0--0-0--0---|
|
|      ~~~~~~~~~
|                                |-3-|
| Q   +Q    +E  +E    E E   E  E S S S E E E E E   E    +S      +S  +S  +S      +E  +Q.     +E
|-------------------------|----------------------|-----------------------------------------------|
|-----------------------7-|-8-10-7h8p7---7-------|-----------------------------------------------|
|-9---(9)---(9)-(9)\-/9---|------------9---9-7-9-|-9b11r(9)b11==(9)-(9)r(9)b11==(9)r(9)-----(9)/-|
|-------------------------|----------------------|-----------------------------------------------|
|-------------------------|----------------------|-----------------------------------------------|
|-------------------------|----------------------|-----------------------------------------------|


 -------------|            PM---------|
   E     E     E     E     E     E     E     E
|-------------------------------------------------|
|-------------------------------------------------|
|--------------------0-----------------------0----|
|--------------4-----------------------4----------|
|--------2-----------------------2----------------|
|--3-----------------------2----------------------|
|
|  S  S  S  S  S  S  S  S  S  S  S  S  S  S  S  S
|-15-13-12----13-12-------------------------------|
|----------15-------15-13-15-13-13----13----------|
|----------------------------------14----14-14-12-|
|-------------------------------------------------|
|-------------------------------------------------|
|-------------------------------------------------|


  F#5
   PM-----------------------------------|          PM-----|
   E    E E E E E  E  E    E    E       E       E  E    E   E   E
|-----------------------|-----------------------------------------|
|-----------------------|-----------------------------------------|
|-----------------------|-----------------------6---------------6-|
|-----------------------|---------------6-------------------6-----|
|--4----4-4-4-4-4--4--4-|-------4-----------------------4---------|
|--2----2-2-2-2-2--2--2-|--5-----------------------4--------------|
|
|  ~~~~~
|                          |-------3-------|
|  H.              E  E    Q       Q       Q       Q       +E   E
|-----------------------|-17b19---17b19---17b19---17b19r==(17)-14-|
|-17b19-----------17-14-|-----------------------------------------|
|-----------------------|-----------------------------------------|
|-----------------------|-----------------------------------------|
|-----------------------|-----------------------------------------|
|-----------------------|-----------------------------------------|


  F#5
   PM-----------------------------------------|      PM---------|
   E      E  E E   E  E    E  E    E        E  E  E  E        E  E        E
|-------------------------------|---------------------------------------------|
|-------------------------------|---------------------------------------------|
|-------------------------------|-----------------6-----------------------6---|
|-------------------------------|--------------6-----------------6------------|
|--4------4--4-4---4--4----4--4-|-----------4-----------------4---------------|
|--2------2--2-2---2--2----2--2-|--5-----------------4------------------------|
|
|         ~~~~~~~~~~~~
|                                  |--3--|           |--3--|     |--3--|
|  E     +Q.      +E  S S  E  E    S  S  S  e  e  e  S  S  S  E  S  S  S  E
|-19b21-(19)-----(19)-----14-17-|-14----17----14-17-14h17p14----14h17p14------|
|-----------------------x-------|----17----17----------------17----------17---|
|---------------------x---------|---------------------------------------------|
|-------------------------------|---------------------------------------------|
|-------------------------------|---------------------------------------------|
|-------------------------------|---------------------------------------------|


  F#5
   PM-------------------------------------|           PM------|
   E      E  E E   E  E  E  E        E  E  E  E       E    E   E  E
|--------------------------------|----------------------------------|
|--------------------------------|----------------------------------|
|--------------------------------|------------6-------------------6-|
|--------------------------------|---------6-------------------6----|
|--4------4--4-4---4--4--4--4----|------4------------------4--------|
|--2------2--2-2---2--2--2--2----|---5----------------4-------------|
|
|         ~~~~~~~~~~~~
|  E     +Q.      +Q     E  E       +Q     E  E      +E   +E   E  E
|--------------------------------|----------------------------------|
|-17b19-(17)-----(17)---17-------|--------17------------------------|
|--------------------------16b18-|-(16)------16b18==(16)r(16)-14-16-|
|--------------------------------|----------------------------------|
|--------------------------------|----------------------------------|
|--------------------------------|----------------------------------|


  F#5
   PM-------------------------------|                PM---|
   E E  E     E   E  E  E  E    E E  E    E          E  E   E         E
|----------------------------|---------------------------------------------|
|----------------------------|---------------------------------------------|
|----------------------------|------------6---------------------------6----|
|----------------------------|-------6----------------------6--------------|
|--4-4--4-----4---4--4--4--4-|----4---------------------4------------------|
|--2-2--2-----2---2--2--2--2-|--5--------------------4---------------------|
|
|  ~~         ~~~~~~~           ~~                   ~~~~~~~~~~~
|  Q    S  S  E  +Q     E  E    Q    S  E    S      +Q     +S   +S    E
|----------------------------|---------------------------------------------|
|----------------------------|--------------17b19==(17)---(17)r(17)-(17)\--|
|-14-------------------14-16-|-14------------------------------------------|
|------16-14-16-(16)---------|------16-14----------------------------------|
|----------------------------|---------------------------------------------|
|----------------------------|---------------------------------------------|


  E5
   PM---------------------------|            PM---------|
   E    E E E E E  E  E    E  E  E        E  E        E  E        E
|-----------------------|-------------------------------------------|
|-----------------------|-------------------------------------------|
|-----------------------|-----------------0-----------------------0-|
|-----------------------|--------4-----------------------4----------|
|--2----2-2-2-2-2--2--2-|-----2-----------------------2-------------|
|--0----0-0-0-0-0--0--0-|--3-----------------2----------------------|
|
|  ~~~~~
|                                |--3--|     |--3--|     |--3--|
|  H.              E  E    E  E  S  S  S  e  S  S  S  e  S  S  S  e
|-12--------------12-15-|-17-15-12h15p12----15h19p15----14h17p14----|
|-15b17-----------------|----------------15----------17----------15-|
|-----------------------|-------------------------------------------|
|-----------------------|-------------------------------------------|
|-----------------------|-------------------------------------------|
|-----------------------|-------------------------------------------|


  E5
   PM-------------------------------|           PM------|
   E    E E E E E  E  E        E  E  E  E       E    E   E  E
|--------------------------|----------------------------------|
|--------------------------|----------------------------------|
|--------------------------|------------0-------------------0-|
|--------------------------|---------4-------------------4----|
|--2----2-2-2-2-2--2--2----|------2------------------2--------|
|--0----0-0-0-0-0--0--0----|---3----------------2-------------|
|
|  ~~~~~
|  H.              E  E       +Q     E  E      +E   +E   E  E
|-12-----------------------|----------------------------------|
|-15b17-----------15-15----|-(15)---15-15-----(15)-(15)-------|
|--------------------14b16-|-(14)------14b16==(14)r(14)-12-14-|
|--------------------------|----------------------------------|
|--------------------------|----------------------------------|
|--------------------------|----------------------------------|


  E5
   PM-------------------------------------|                PM---|
   E E  E     E   E  E  E  E    E      E   E        E      E  E E E
|----------------------------|--------------------------------------|
|----------------------------|--------------------------------------|
|----------------------------|----------------------0-------------0-|
|----------------------------|-------------4--------------------4---|
|--2-2--2-----2---2--2--2--2-|---------2----------------------2-----|
|--0-0--0-----0---0--0--0--0-|--3--------------------------2--------|
|
|  ~~         ~~~~~~~                               ~~~~~~~~~~
|                                          |--3--|
|  Q    S  S  E  +Q     e  e    E     +E   S  S  S  E     +H
|----------------------------|--------------------------------------|
|----------------------------|---------------------15b17-(15)-------|
|-12-------------------12-14-|-14b16r(14)-12h14p12------------------|
|------14-12-14-(14)---------|--------------------------------------|
|----------------------------|--------------------------------------|
|----------------------------|--------------------------------------|


  E5
  PM----------------------------------------|         PM-------|
  E   E   E   E   E   E   E   E     E   E   E    E    E    E   E    E
|---------------------------------|-------------------------------------|
|---------------------------------|-------------------------------------|
|---------------------------------|--------------0------------------0---|
|---------------------------------|---------4------------------4--------|
|-2---2---2---2---2---2---2---2---|-----2------------------2------------|
|-0---0---0---0---0---0---0---0---|-3-----------------2-----------------|
|
| S S S S S S S S S S S S S S S S   S S S S S S  S S  S S  S S S  S S S
|---------------------------------|----------------7----7-10-8-7----8-7-|
|---------------------------------|---------7-9-10---10----------10-----|
|-------------------------------6-|-7-9-8-9-----------------------------|
|-------------------7-5-7-6-7-9---|-------------------------------------|
|---------4-5-4-5-7---------------|-------------------------------------|
|-2s3-5-7-------------------------|-------------------------------------|


                                           D.S.S. al Dbl. Coda
  B5/E
   W                                  +W           +W
|-----------------------------------|------------|-------------||
|-----------------------------------|------------|-------------||
|-----------------------------------|------------|-------------||
|--4--------------------------------|-(4)--------|-(4)---------||
|--2--------------------------------|-(2)--------|-(2)---------||
|--0--------------------------------|-(0)--------|-(0)---------||
|
|                |---5---|
|  S S  T  T T T S S S S S H          +W           +H.      Q
|-----------------------------------|------------|-------------||
|-10-8-10-10-8p7---8-7--------------|------------|-------------||
|----------------9-----9-7-9b11=====|=(9)r=======|=(9)------x--||
|-----------------------------------|------------|-------------||
|-----------------------------------|------------|-------------||
|-----------------------------------|------------|-------------||


    Faster Q=132
    &&
    E5
    PM--------------------|   PM--|
    E E E E E E E E   E E E E E E E E  3x
||------------------|------------------||
||o-----------------|-----------------o||
||------------------|-------0-------0--||
||------------------|-----4-------4----||
||o-2-2-2-2-2-2-2-2-|---2-------2-----o||
||--0-0-0-0-0-0-0-0-|-3-------2--------||


  H.=H                                 Ritard QH=H
  E5                                   E5
  PM------------------------------|
  E E E E E E E E   E E E E E E E E    H.        Q
|-----------------|-----------------||-0---------------||
|-----------------|-----------------||-0---------------||
|-----------------|-----------------||-----------------||
|-----------------|-----------------||-2---------------||
|-2-2-2-2-2-2-2-2-|-2-2-2-2-2-2-2-2-||-2---------------||
|-0-0-0-0-0-0-0-0-|-0-0-0-0-0-0-0-0-||-0-------/15\----||


  Tempo I Q=112
  E5 E    D   E    B5  C    C    G5 F#5
  Q   Q    E   Q   E    Q    Q   Q  Q
|--------------------|-----------------|
|----(9)--(7)-(9)----|-(5)--(5)--------|
|-----9----7---9---4-|--5----5---------|
|-----9----7---9---4-|--5----5---------|
|-2---7----5---7---2-|--3----3---5--4--|
|-0------------------|-----------3--2--|


  E5 E    D   E    B5  C    C    G5  F#5
  Q   Q    E   Q   E    Q    Q    Q   Q
|--------------------|-------------------|
|----(9)--(7)-(9)----|-(5)--(5)----------|
|-----9----7---9---4-|--5----5---12--11--|
|-----9----7---9---4-|--5----5---12--11--|
|-2---7----5---7---2-|--3----3---10---9--|
|-0------------------|-------------------|


  E5   E    D   E    B5  C      C    G5 F#5
   Q    Q    E   Q   E     Q     Q   Q  Q
|----------------------|-------------------|
|------(9)--(7)-(9)----|--(5)---(5)--------|
|-------9----7---9---4-|---5-----5---------|
|-------9----7---9---4-|---5-----5---------|
|--2----7----5---7---2-|---3-----3---5--4--|
|--0-------------------|-------------3--2--|
|
| Gtr IV
|  W                      +W
|----------------------|-------------------|
|----------------------|-------------------|
|----------------------|-------------------|
|----------------------|-------------------|
|-------------------|-()-------------|
|----------------------|-------------------|


  E5     E    D   E    B5  C      C      G5  F#5
    Q     Q    E   Q   E     Q     Q      Q   Q
|------------------------|------------------------|
|--------(9)--(7)-(9)----|--(5)---(5)-------------|
|---------9----7---9---4-|---5-----5-----12--11---|
|---------9----7---9---4-|---5-----5-----12--11---|
|---2-----7----5---7---2-|---3-----3-----10---9---|
|---0--------------------|------------------------|
|
|  +W                       +Q.        E  Q   Q
|------------------------|------------------------|
|------------------------|------------------------|
|------------------------|------------------------|
|------------------------|------------------------|
|-()------------------|-()------------------|
|------------------------|------------12s=9s==7\--|


 Outro
  E5     E    D     E        B5
   Q      Q    E     Q        E
|-------------------------------------|
|--------(9)--(7)---(9)---------------|
|---------9----7-----9--------4-------|
|---------9----7-----9--------4-------|
|--2------7----5-----7--------2-------|
|--0----------------------------------|
|
| Gtr IV
|                             |--3--|
|  H           Q         +E   S  S  S
|-12----------12--------(12)----------|
|-15b17-------15b17r====(15)-12h15p12-|
|-------------------------------------|
|-------------------------------------|
|-------------------------------------|
|-------------------------------------|


  C    C                   G5                        F#5
   Q    Q                    Q                         Q
|-----------------------------------------------------------------------|
|-(5)--(5)--------------------------------------------------------------|
|--5----5---------------------------------------------------------------|
|--5----5---------------------------------------------------------------|
|--3----3--------------------5-------------------------4----------------|
|----------------------------3-------------------------2----------------|
|
|  Q    S   S   S      +S    S      +S    S      +S    S      +S   S  S
|-----------------------------------------------------------------------|
|-12---14--12-[12]b14r(12)-[14]b16r(14)-[14]b16r(14)-[14]b16r(14)-12-14-|
|-----------------------------------------------------------------------|
|-----------------------------------------------------------------------|
|-----------------------------------------------------------------------|
|-----------------------------------------------------------------------|


  E5            E         D       E           B5
   Q             Q         E       Q           E
|---------------------------------------------------|
|---------------(9)-------(7)-----(9)---------------|
|----------------9---------7-------9-----------4----|
|----------------9---------7-------9-----------4----|
|--2-------------7---------5-------7-----------2----|
|--0------------------------------------------------|
|
|                ~~~       ~~~~~~~         ~~~~
|  E       S  S  E   S  S  E       S   S   E   S  S
|---------------------------------------------------|
|---------------------------------------------------|
|-12b12.5-----------12-14-12b12.5-12----------12-14-|
|---------14-12-14--------------------14-[14]-------|
|---------------------------------------------------|
|---------------------------------------------------|


  C           C         G5                  F#5
   Q           Q         Q                    Q
|-------------------------------------------------||
|-(5)---------(5)---------------------------------||
|--5-----------5--------12-------------------11---||
|--5-----------5--------12-------------------11---||
|--3-----------3--------10--------------------9---||
|-------------------------------------------------||
|
|              ~~~                            ~~~~
|  S  S  S  S  E   S  S  S     +S   S  S     +Q
|-------------------------------------------------||
|-------------------------------------------------||
|-12h14-12h14-12--12-14-14b16r(14)-12h14b16-(14)--||
|-------------------------------------------------||
|-------------------------------------------------||
|-------------------------------------------------||


    E5  E    D   E    B5  C    C    G5 F#5
     Q   Q    E   Q   E    Q    Q   Q  Q
||----------------------|-----------------|
||o-----(9)--(7)-(9)----|-(5)--(5)--------|
||-------9----7---9---4-|--5----5---------|
||-------9----7---9---4-|--5----5---------|
||o--2---7----5---7---2-|--3----3---5--4--|
||---0------------------|-----------3--2--|
|
|    ~~~~~~~~~~~~~~~~~~~~~~~~~~~~~~~~~~~~~~
|    W                     W
||----------------------|-----------------|
||o-17------------------|-----------------|
||----------------------|-14--------------|
||----------------------|-----------------|
||o---------------------|-----------------|
||----------------------|-----------------|


  E5     E    D   E    B5  C     C    G5       F#5
    Q     Q    E   Q   E     Q    Q    Q        Q
|------------------------|--------------------------------||
|--------(9)--(7)-(9)----|--(5)--(5)---------------------o||
|---------9----7---9---4-|---5----5---12-------11---------||
|---------9----7---9---4-|---5----5---12-------11---------||
|---2-----7----5---7---2-|---3----3---10--------9--------o||
|---0--------------------|--------------------------------||
|
|~~~~~~~~~~~~~~~~~~~~~~~~~~~~~~~
|   W                        H         S  S  E  E  S  S
|------------------------|------------14h15-17-14-15p14---||
|-/17\-------------------|-/17---------------------------o||
|-(14)\------------------|-/14----------------------------||
|------------------------|--------------------------------||
|------------------------|-------------------------------o||
|------------------------|--------------------------------||



Duration Legend
---------------
W - whole; H - half; Q - quarter; E - 8th; S - 16th; T - 32nd; X - 64th; a - acciaccatura
+ - note tied to previous; . - note dotted; .. - note double dotted
Uncapitalized letters represent notes that are staccato (1/2 duration)
Irregular groupings are notated above the duration line
Duration letters will always appear directly above the note/fret number it represents the
duration for.  Duration letters with no fret number below them represent rests.  Multi-
bar rests are notated in the form Wxn, where n is the number of bars to rest for.  Low
melody durations appear below the staff

Tablature Legend
----------------
 h   - hammer-on
 p   - pull-off
 b   - bend
 pb  - pre-bend
 r   - bend release (if no number after the r, then release immediately)
 /\  - slide into or out of (from/to "nowhere")
 s   - legato slide
 S   - shift slide
 - natural harmonic
[n]  - artificial harmonic
n(n) - tapped harmonic
 ~   - vibrato
 tr  - trill
 T   - tap
 TP  - trem. picking
 PM  - palm muting
\n/  - tremolo bar dip; n = amount to dip
 \n  - tremolo bar down
 n/  - tremolo bar up
/n\  - tremolo bar inverted dip
 =   - hold bend; also acts as connecting device for hammers/pulls
  - volume swell (louder/softer)
 x   - on rhythm slash represents muted slash
 o   - on rhythm slash represents single note slash

Misc Legend
-----------
 |  - bar
||  - double bar
||o - repeat start
o|| - repeat end
*|  - double bar (ending)
 :  - bar (freetime)
 $  - Segno
 &  - Coda
Tempo markers -  = BPM(8/16=s8/s16), where s8 = swing 8ths, s16 = swing 16ths    

Added On December 16th, 2013

SHARE

Comments

blog comments powered by Disqus

VERSIONS

ADVERTISEMENT