Owen Tabs

Bed Abuse

2 versions

TAB

            Bed Abuse Tab by Owen


Owen-Bed Abuse
Album: I Do Perceive
Tuning: FADGBE

This song has 2 acoustic guitars in it and like some weird background electric/piano 
but with even 2 acoustics it sounds amazing

Guitar 1-(plays this pretty much through the entire song-listen for strumming pattern)
E— 0----0----0-|
B— 0----0----0-|
G— 6----4----2-|
D— 6----4----2-|
A— 4----2----0-|
F—-x----x----x-|
Guitar 2-(fingerpicking may be easier)
E--------------------------------------------------------------------|
B----------7p5p0------------4—4/5/4-0-----------2-----0--------------|
G--------------------------------------------------------------------|
D------6-------------------------------------------2-----2-----2-----|
A—4--------------------2--------------------0------------------------|
F--------------------------------------------------------------------|
E--------------------------------------------------------------------|
B----------7p5p0--------4—4/5/4p2p0-------------2-----0--------------|
G--------------------------------------------------------------------|
D------6--------------------------------------------2-----2-----2----|
A—4------------------2-----------------------0-----------------------|
F--------------------------------------------------------------------|
   You just repeat between these two riffs for the intro and pretty much the entire song 
the outro...then


 "Its more me than youuuuu"-Guitar 1
E-----------2----0----------2-----0----------2----0------------2h4(p)0----|
B--------0---------------0-----------------0----------------0-------------|
G-------------------------------------------------------------------------|
D-------------2---------------2------------------2------------------------|
A---0-----------------0-----------------------------------2---------------|
F----------------------------------------3--------------------------------|
Note: Notice that you play the above riff twice while only playing the below riff 
once  aka above riff played twice=below riff played once

Guitar 2
E----4h5—5h7—5p4/2—2h4p2----0--------0---------------------------------------|
B--------------------------------4h5/7--/5/4p0-------------------------------|
G----------------------------------------------1h2-4-2p1----1h2-4-2p1---1----|
D--------------------------------------------------------2-------------4--2--|
A----------------------------------------------------------------------------|
F----------------------------------------------------------------------------|

Electric Distorted
E—2—2p0-2p0—4—2p0-2p0--------7--|
B-----------------------4—5-----|
G-------------------------------|
D-------------------------------|
A-------------------------------|
E-------------------------------|    

Added On December 5th, 2013

SHARE

Comments

blog comments powered by Disqus

VERSIONS

ADVERTISEMENT