Owl City Tabs

Sky Diver

1 versions

TAB

            Tuning: Standard

Sky Diver
Owl City
Maybe I'm Dreaming (2009)

Intro: (2x)

e|---------------3-5--3--7-8-7-3--------------3-5--3--7-8-7-3----------|
B|--3--0-3-0------------------------0-3-0------------------------------|
G|-----------2----------------------------2----------------------------|
D|---------------------------------------------------------------------|
A|---------------------------------------------------------------------|
E|---------------------------------------------------------------------|

e|------------3-0--3--7-8-7-3-2---------3-5--3--7-8-7-3----------------|
B|--0-3-0------------------------3-0-3---------------------------------|
G|--------2------------------------------------------------------------|
D|---------------------------------------------------------------------|
A|---------------------------------------------------------------------|
E|---------------------------------------------------------------------|

I stood up and took a breath and threw open the bay doors
Below the clouds I saw the coast and beautiful Hawaii
Leaning back, the pilot smiled and shouted, "Have a good trip!"
I signed off and closed my eyes. Then I was falling through the sky


e|---------------3-5--3--7-8-7-3--------------3-5--3--7-8-7-3----------|
B|--3--0-3-0------------------------0-3-0------------------------------|
G|-----------2----------------------------2----------------------------|
D|---------------------------------------------------------------------|
A|---------------------------------------------------------------------|
E|---------------------------------------------------------------------|

e|------------3-0--3--7-8-7-3-2---------3-5--3--7-8-7-3----------------|
B|--0-3-0------------------------3-0-3---------------------------------|
G|--------2------------------------------------------------------------|
D|---------------------------------------------------------------------|
A|---------------------------------------------------------------------|
E|---------------------------------------------------------------------|

Leaning back, the pilot smiled and shouted, "Have a good trip!"
I signed off and closed my eyes. Then I was falling through the sky

Ending: (8x)

e|---8-7-3-3--0-3-5--0--3-5-7-5-3--------------------------------------|
B|---------------------------------------------------------------------|
G|---------------------------------------------------------------------|
D|---------------------------------------------------------------------|
A|---------------------------------------------------------------------|
E|---------------------------------------------------------------------|

Thanks for using my tab!!    

Added On December 16th, 2013

SHARE

Comments

blog comments powered by Disqus

ADVERTISEMENT