TAB

            Artist: Oyuugi Wagamama-dan X [PaRADEiS], or [PaRADEiS] for short.

Song: Onigokko

Tabbed by: MarowLan

Tuning: Drop D

Official Site: www.paradeis.net

e|-----------------------------------------------------------------------------|
B|-----------------------------------------------------------------------------|
G|-----------------------------------------------------------------------------|
D|-3-3-3--8-8-8--5-5-5--6-6-6--8-8-8-8-8-8--11-11-11--10-10-10-----------------|
A|-3-3-3--8-8-8--5-5-5--6-6-6--8-8-8-8-8-8--11-11-11--10-10-10-----------------|
D|-3-3-3--8-8-8--5-5-5--6-6-6--8-8-8-8-8-8--11-11-11--10-10-10-----------------|

e|--------------------------------------------------------------------|
B|--------------------------------------------------------------------|
G|--------------------------------------------------------------------|
D|-3-3-3--8-8-8--5-5-5--6-6-6--8-8-8-8-8-8--6-6-6-6-6-6---------------|
A|-3-3-3--8-8-8--5-5-5--6-6-6--8-8-8-8-8-8--6-6-6-6-6-6---------------|
D|-3-3-3--8-8-8--5-5-5--6-6-6--8-8-8-8-8-8--6-6-6-6-6-6---------------|

e|-----------------------------------------------------------------------------|
B|-----------------------------------------------------------------------------|
G|-----------------------------------------------------------------------------|
D|-3-3-3--8-8-8--5-5-5--6-6-6--8-8-8-8-8-8--11-11-11--10-10-10-----------------|
A|-3-3-3--8-8-8--5-5-5--6-6-6--8-8-8-8-8-8--11-11-11--10-10-10-----------------|
D|-3-3-3--8-8-8--5-5-5--6-6-6--8-8-8-8-8-8--11-11-11--10-10-10-----------------|

e|--------------------------------------------------------------------|
B|--------------------------------------------------------------------|
G|--------------------------------------------------------------------|
D|-3-3-3--8-8-8--5-5-5--6-6-6--5-5-5-5-5-5--3-3-3-3-3-3---------------|
A|-3-3-3--8-8-8--5-5-5--6-6-6--5-5-5-5-5-5--3-3-3-3-3-3---------------|
D|-3-3-3--8-8-8--5-5-5--6-6-6--5-5-5-5-5-5--3-3-3-3-3-3---------------|


| /  Slide
| h  Hammer on
| p  Pull off
| b  Bend    

Added On December 16th, 2013

SHARE

Comments

blog comments powered by Disqus

ADVERTISEMENT