Ozzy Osbourne Tabs

Countdowns Begun

2 versions

TAB

            Ozzy Osbourne - Countdowns Begun - Black Rain.


this is most of the song that i have done. could some try and finish it off ill continue 
because its a great song contact:trav_555@hotmail.com, 
thanks trav

Intro:

|-----------------------------------------------------|
|-----------------------------------------------------|
|-----------------------------------------------------|
|--------------------------------------3-0-5----------| x 5
|----0-7-5-0-3-0-3-0-5-----0-7-5-0-3-0----------------|
|-----------------------------------------------------|

Verse:

|-----------------------------------------------------|
|-----------------------------------------------------|
|----------------------------0------------------------|
|------------x-x-x-x-x-x-x-x-0------------------------|
|----4-3-2-1-x-x-x-x-x-x-x-x-0------------------------|
|----4-3-2-1-x-x-x-x-x-x-x-x--------------------------|

Chorus:

|-----------------------------------------------------|
|-----------------------------------------------------|
|--------------------0--------------------------------|
|--------------------0--------------------------------|
|--------------------0--------------------------------|
|----x-x-x-x-x-x-x-x------18-17-16-15-12-13-12-13-----|

someone please tab the rest of it

any enquirers email at trav_555@hotmai.com or on my myspace: www.myspace.com/checkpointforlosers    

Added On December 16th, 2013

SHARE

Comments

blog comments powered by Disqus

VERSIONS

ADVERTISEMENT