Papa Roach Tabs

Dead Cell

4 versions

TAB

            Dead Cell Tab by Papa Roach


----------------------------------------------------------------------
			 Dead Cell - Papa Roach
----------------------------------------------------------------------

By:ck_dubs
Played in Drop D tuning
PM = Palm Mute
h  = Hammer On

Intro:
e|-------------------------------------------------------------
B|-------------------------------------------------------------
G|-------------------------------------------------------------
D|-------------------------------------------------------------
A|-------------------------------------------------------------
D|--2-0-2-0-2-2-0-2--0-2-0-2-2-0-2--0-2-0-2-2-0-2-0-4-0-4-5-5--

e|--------------------------------------------------------------
B|--------------------------------------------------------------
G|--------------------------------------------------------------
D|--------------------------------------------------------------
A|--------------------------------------------------------------
D|--2-0-2-0-2-2-0-2--0-2-0-2-2-0-2--0-2-0-2-2-0-2--9-9-9-9-5-5--
 *(If you don't like using the 9th fret, use the 2nd fret on the second string)

e|-------------------------------------------------------------
B|-------------------------------------------------------------
G|-------------------------------------------------------------
D|--2-0-2-0-2-2-0-2--0-2-0-2-2-0-2--0-2-0-2-2-0-2-0-4-0-4-5-5--
A|--2-0-2-0-2-2-0-2--0-2-0-2-2-0-2--0-2-0-2-2-0-2-0-4-0-4-5-5--
D|--2-0-2-0-2-2-0-2--0-2-0-2-2-0-2--0-2-0-2-2-0-2-0-4-0-4-5-5--

e|--------------------------------------------------------------
B|--------------------------------------------------------------
G|--------------------------------------------------------------
D|--2-0-2-0-2-2-0-2--0-2-0-2-2-0-2--0-2-0-2-2-0-2--9-9-9-9-5-5--
A|--2-0-2-0-2-2-0-2--0-2-0-2-2-0-2--0-2-0-2-2-0-2--9-9-9-9-5-5--
D|--2-0-2-0-2-2-0-2--0-2-0-2-2-0-2--0-2-0-2-2-0-2--9-9-9-9-5-5-- X2

Verse:
e|---------------------------------------------------------
B|---------------------------------------------------------
G|---------------------------------------------------------
D|--2--0-2-0-2-0-2-0-2-2-22-0-2--0-2-0-2-0-2-0-2-2-4-4-5-2-
A|--2--0-2-0-2-0-2-0-2-2-22-0-2--0-2-0-2-0-2-0-2-2-4-4-5-2-
D|--2--0-2-0-2-0-2-0-2-2-22-0-2--0-2-0-2-0-2-0-2-2-4-4-5-2-
       |-----PM----|     |--|    |----PM-----|

e|----------------------------------------------------------
B|----------------------------------------------------------
G|----------------------------------------------------------
D|-0-2-0-2-0-2-0-2-2-22-0-2--0-2-0-2-0-2-0-9-9-9-9-5-5-5-5--
A|-0-2-0-2-0-2-0-2-2-22-0-2--0-2-0-2-0-2-0-9-9-9-9-5-5-5-5--
D|-0-2-0-2-0-2-0-2-2-22-0-2--0-2-0-2-0-2-0-9-9-9-9-5-5-5-5-- X2
   |----PM-----|     |--|    |----PM-----|

  "Dead cell, dead cell"
e|------------------------------------------
B|------------------------------------------
G|------------------------------------------
D|--2--4h5-5--2--4h5-5--2--4h5-5--2--4h5-5--
A|--2---------2---------2---------2---------
D|--2---------2---------2---------2--------- X2

2nd Verse: This one start a bit differently at first
e|---------------------------------------------------
B|---------------------------------------------------
G|---------------------------------------------------
D|--2-2-0-2-0-2-0-2-2-22-0-2--0-2-0-2-0-2-2-4-4-5-2--
A|--2-2-0-2-0-2-0-2-2-22-0-2--0-2-0-2-0-2-2-4-4-5-2--
D|--2-2-0-2-0-2-0-2-2-22-0-2--0-2-0-2-0-2-2-4-4-5-2--
      |---PM----|     |--|    |--PM---|

e|----------------------------------------------------------
B|----------------------------------------------------------
G|----------------------------------------------------------
D|-0-2-0-2-0-2-0-2-2-22-0-2--0-2-0-2-0-2-0-9-9-9-9-5-5-5-5--
A|-0-2-0-2-0-2-0-2-2-22-0-2--0-2-0-2-0-2-0-9-9-9-9-5-5-5-5--
D|-0-2-0-2-0-2-0-2-2-22-0-2--0-2-0-2-0-2-0-9-9-9-9-5-5-5-5--
   |----PM-----|     |--|    |----PM-----|

e|---------------------------------------------------------
B|---------------------------------------------------------
G|---------------------------------------------------------
D|--2--0-2-0-2-0-2-0-2-2-22-0-2--0-2-0-2-0-2-0-2-2-4-4-5-2-
A|--2--0-2-0-2-0-2-0-2-2-22-0-2--0-2-0-2-0-2-0-2-2-4-4-5-2-
D|--2--0-2-0-2-0-2-0-2-2-22-0-2--0-2-0-2-0-2-0-2-2-4-4-5-2-
       |-----PM----|     |--|    |----PM-----|

e|----------------------------------------------------------
B|----------------------------------------------------------
G|----------------------------------------------------------
D|-0-2-0-2-0-2-0-2-2-22-0-2--0-2-0-2-0-2-0-9-9-9-9-5-5-5-5--
A|-0-2-0-2-0-2-0-2-2-22-0-2--0-2-0-2-0-2-0-9-9-9-9-5-5-5-5--
D|-0-2-0-2-0-2-0-2-2-22-0-2--0-2-0-2-0-2-0-9-9-9-9-5-5-5-5--
   |----PM-----|     |--|    |----PM-----|

  "Dead cell, Dead cell"
e|------------------------------------------
B|------------------------------------------
G|------------------------------------------
D|--2--4h5-5--2--4h5-5--2--4h5-5--2--4h5-5--
A|--2---------2---------2---------2---------
D|--2---------2---------2---------2--------- X2

Chorus: "BORN WITH NO SOUL, LACK OF CONTROL...."
e|-------------------------------------------------------------
B|-------------------------------------------------------------
G|-------------------------------------------------------------
D|--2-0-2-0-2-2-0-2--0-2-0-2-2-0-2--0-2-0-2-2-0-2-0-4-0-4-5-5--
A|--2-0-2-0-2-2-0-2--0-2-0-2-2-0-2--0-2-0-2-2-0-2-0-4-0-4-5-5--
D|--2-0-2-0-2-2-0-2--0-2-0-2-2-0-2--0-2-0-2-2-0-2-0-4-0-4-5-5--

e|--------------------------------------------------------------
B|--------------------------------------------------------------
G|--------------------------------------------------------------
D|--2-0-2-0-2-2-0-2--0-2-0-2-2-0-2--0-2-0-2-2-0-2--9-9-9-9-5-5--
A|--2-0-2-0-2-2-0-2--0-2-0-2-2-0-2--0-2-0-2-2-0-2--9-9-9-9-5-5--
D|--2-0-2-0-2-2-0-2--0-2-0-2-2-0-2--0-2-0-2-2-0-2--9-9-9-9-5-5-- X2

3rd Verse:
e|---------------------------------------------------------
B|---------------------------------------------------------
G|---------------------------------------------------------
D|--2--0-2-0-2-0-2-0-2-2-22-0-2--0-2-0-2-0-2-0-2-2-4-4-5-2-
A|--2--0-2-0-2-0-2-0-2-2-22-0-2--0-2-0-2-0-2-0-2-2-4-4-5-2-
D|--2--0-2-0-2-0-2-0-2-2-22-0-2--0-2-0-2-0-2-0-2-2-4-4-5-2-
       |-----PM----|     |--|    |----PM-----|

e|----------------------------------------------------------
B|----------------------------------------------------------
G|----------------------------------------------------------
D|-0-2-0-2-0-2-0-2-2-22-0-2--0-2-0-2-0-2-0-9-9-9-9-5-5-5-5--
A|-0-2-0-2-0-2-0-2-2-22-0-2--0-2-0-2-0-2-0-9-9-9-9-5-5-5-5--
D|-0-2-0-2-0-2-0-2-2-22-0-2--0-2-0-2-0-2-0-9-9-9-9-5-5-5-5-- X3
   |----PM-----|     |--|    |----PM-----|

 "Dead cell, Dead cell"
e|------------------------------------------
B|------------------------------------------
G|------------------------------------------
D|--2--4h5-5--2--4h5-5--2--4h5-5--2--4h5-5--
A|--2---------2---------2---------2---------
D|--2---------2---------2---------2--------- X2

2nd Chorus: "BORN WITH NO SOUL, LACK OF CONTROL...."
e|-------------------------------------------------------------
B|-------------------------------------------------------------
G|-------------------------------------------------------------
D|--2-0-2-0-2-2-0-2--0-2-0-2-2-0-2--0-2-0-2-2-0-2-0-4-0-4-5-5--
A|--2-0-2-0-2-2-0-2--0-2-0-2-2-0-2--0-2-0-2-2-0-2-0-4-0-4-5-5--
D|--2-0-2-0-2-2-0-2--0-2-0-2-2-0-2--0-2-0-2-2-0-2-0-4-0-4-5-5--

e|--------------------------------------------------------------
B|--------------------------------------------------------------
G|--------------------------------------------------------------
D|--2-0-2-0-2-2-0-2--0-2-0-2-2-0-2--0-2-0-2-2-0-2--9-9-9-9-5-5--
A|--2-0-2-0-2-2-0-2--0-2-0-2-2-0-2--0-2-0-2-2-0-2--9-9-9-9-5-5--
D|--2-0-2-0-2-2-0-2--0-2-0-2-2-0-2--0-2-0-2-2-0-2--9-9-9-9-5-5-- X2

After 2nd Chorus: Whispers, "dead...cell...dead...CELL"
e|--------------------------------------------------------------
B|--------------------------------------------------------------
G|--------------------------------------------------------------
D|--2--4h5-5--2--4h5-5--2--4h5-5--2--4h5-5--2-2--2-2--2-2--2-2--
A|--2---------2---------2---------2---------2-2--2-2--2-2--2-2--
D|--2---------2---------2---------2---------2-2--2-2--2-2--2-2--

Last Chorus: "Dead cell, Dead Cell"
e|-------------------------------------------------------------
B|-------------------------------------------------------------
G|-------------------------------------------------------------
D|--2-0-2-0-2-2-0-2--0-2-0-2-2-0-2--0-2-0-2-2-0-2-0-4-0-4-5-5--
A|--2-0-2-0-2-2-0-2--0-2-0-2-2-0-2--0-2-0-2-2-0-2-0-4-0-4-5-5--
D|--2-0-2-0-2-2-0-2--0-2-0-2-2-0-2--0-2-0-2-2-0-2-0-4-0-4-5-5--

e|--------------------------------------------------------------
B|--------------------------------------------------------------
G|--------------------------------------------------------------
D|--2-0-2-0-2-2-0-2--0-2-0-2-2-0-2--0-2-0-2-2-0-2--9-9-9-9-5-5--
A|--2-0-2-0-2-2-0-2--0-2-0-2-2-0-2--0-2-0-2-2-0-2--9-9-9-9-5-5--
D|--2-0-2-0-2-2-0-2--0-2-0-2-2-0-2--0-2-0-2-2-0-2--9-9-9-9-5-5--

Outro:
e|-----------------------------------------------
B|-----------------------------------------------
G|-----------------------------------------------
D|--2--4h5-5--2--4h5-5--2--4h5-5--2--4h5-5--2-2--
A|--2---------2---------2---------2---------2-2--
D|--2---------2---------2---------2---------2-2--    

Added On December 5th, 2013

SHARE

Comments

blog comments powered by Disqus

VERSIONS

ADVERTISEMENT