Paramore Tabs

Plane Crash Dreams

1 versions

TAB

            This is my first tab, first time even even TRYING to tab a song by ear, so i don't
know the name of the chords so ill graph them out. Sorry if it's not perfect, but I couldn't
the chords for this song and it was driving me crazy and i saw a lot of people asking 
them. I also know that PARAMORE (as a band) does not sing this song, but no one types in
farros' name:/
Here it is:
(NO CAPO)

e|-2----------------|
B|-2----------------|
G|-2---4------------|
D|-2---4------------|
A|-2----------------|
E|-2----------------|

e|-2----------------|
B|-2----------------|
G|-2--3-------------|
D|-2----4-----------|
A|-2----4-----------|
E|-2----------------|


e|-2----------------|
B|-2----------------|
G|-2---4------------|
D|-2---4------------|
A|-2----------------|
E|-2----------------|

e|------------------|
B|------------------|
G|--1---------------|
D|----2-------------|
A|----2-------------|
E|------------------|

The last one i know for sure is called and E!
And that's it for the entire song, the strumming pattern is really simple when you
to the song: http://www.youtube.com/watch?v=-kFaxmHi35o
Well there ya have it! Hope it was right(:    

Added On December 16th, 2013

SHARE

Comments

blog comments powered by Disqus

ADVERTISEMENT