Paramore Tabs

Pressure

10 versions

TAB

            Pressure Tab by Paramore


-------------------------------------------------------------------------------
			     Pressure - Paramore
-------------------------------------------------------------------------------
Tabbed by: mnbz
Email: who_lies@hotmail.com

Tuning:DADGBE

Guitar 2   Distortion all the way
========
Intro  (00:00) 
E|-------------------------------------|
B|-------------------------------------|
G|-777777-777777-777777-777777---------|
D|-777777-777777-777777-777777---------| x2
A|-999999-000000-555555-000000---------|
D|-999999-000000-555555-000000---------|

Verse   (00:12)
e|---------------------------------------|
B|---------------------------------------|
G|---------------------------------------|
D|-999---9/555---5/---000---0\---444—4\--|
A|-999---9/555---5/---000---0\---444—4\--| X2
D|-999---9/555---5/---000---0\---444—4\--|
   ...     ...        ...        ...

Pre Chorus   (00:24)
e|---------------------------------------|
B|---------------------------------------|
G|---------------------------------------|
D|-9-9-9-9/-5-5-5-5/-0-0-0-0\-4-4-4-4\---| X2
A|-9-9-9-9/-5-5-5-5/-0-0-0-0\-4-4-4-4\---|
D|-9-9-9-9/-5-5-5-5/-0-0-0-0\-4-4-4-4\---|

Chorus     (00:36)
e|--------------------------------------------------------------|
B|--------------------------------------------------------------|
G|--------------------------11b12r11----------------------------|
D|-777777777777777777777777--x--x--x-77777777777777777777777777-| X2
A|-555555000000444444555555—-9b10r-9-55555500000044444455555555-|
D|-555555000000444444555555----------55555500000044444455555555-|
                         ..
Verse     (00:59)
e|---------------------------------------|
B|---------------------------------------|
G|---------------------------------------|
D|-999---9/555---5/---000---0\---444—4\--|
A|-999---9/555---5/---000---0\---444—4\--| 
D|-999---9/555---5/---000---0\---444—4\--|
   ...     ...        ...        ...

Pre Chorus    (01:11)
e|---------------------------------------|
B|---------------------------------------|
G|---------------------------------------|
D|-9-9-9-9/-5-5-5-5/-0-0-0-0\-4-4-4-4\---| X2
A|-9-9-9-9/-5-5-5-5/-0-0-0-0\-4-4-4-4\---|
D|-9-9-9-9/-5-5-5-5/-0-0-0-0\-4-4-4-4\---|








Chorus     (01:23)
e|--------------------------------------------------------------|
B|--------------------------------------------------------------|
G|--------------------------11b12r11----------------------------|
D|-777777777777777777777777--x--x--x-77777777777777777777777777-| X2
A|-555555000000444444555555—-9b10r-9-55555500000044444455555555-|
D|-555555000000444444555555----------55555500000044444455555555-|
                         ..

Interlude  (01:47)
E|-----------------------------|
B|-----------------------------|
G|-777777-777777-777777-777777-|
D|-777777-777777-777777-777777-|
A|-999999-000000-999999-000000-|
D|-999999-000000-999999-000000-|

|-------------------------------------|
|-------------------------------------|
|-777777-777777-777777-777777---------|
|-777777-777777-777777-777777---------| x2
|-999999-000000-555555-000000---------|
|-999999-000000-555555-000000---------|

Bridge   (02:04)
e|---------------------------------------|
B|---------------------------------------|
G|---------------------------------------|
D|-9-9-9-9/-5-5-5-5/-0-0-0-0\-4-4-4-4\---| X2
A|-9-9-9-9/-5-5-5-5/-0-0-0-0\-4-4-4-4\---|
D|-9-9-9-9/-5-5-5-5/-0-0-0-0\-4-4-4-4\---|

Chorus    (02:31)
e|-------------------------------------------------------|
B|----------------------------------------------------B--|
G|----------------------------------------------------R--|
D|-77777777777777777777777777777777777777777777777777-E--|
A|-55555500000044444455555555555555000000444444555555-A--|
D|-55555500000044444455555555555555000000444444555555-K--|

 (02:43)                                   End on
e|-----------------------------------|    |------|
B|-----------------------------------|    |------|
G|--------------------------11b12r11-|    |------|
D|-777777777777777777777777--x--x--x-| X2 |---7~-| 
A|-555555000000444444555555—-9b10r-9-|    |---0~-|
D|-555555000000444444555555----------|    |---0~-|
                         ..

Guitar 1    Distortion all the way except for bridge
========

Intro   (00:00)
e|------------------------------------------------------------------|
B|------------------------------------------------------------------|
G|-11--11-11/9-9-9\-14--14-14/11-11-11—-11-11-11\9-9-9-6-6-6\7-7-7--|
D|--x---x--x-x-x-x---x---x--x--x--x--x—--x--x--x-x-x-x-x-x-x-x-x-x--| X2
A|--9---9—-9/7-7-7\-12--12-12/-9--9--9---9—-9--9\7-7-7-4-4-4\5-5-5--|
D|------------------------------------------------------------------|

Verse   (00:24)
e|---------------------------------------|
B|---------------------------------------|
G|---------------------------------------|
D|-999---9/555---5/---000---0\---444—4\--|
A|-999---9/555---5/---000---0\---444—4\--| X2
D|-999---9/555---5/---000---0\---444—4\--|
   ...     ...        ...        ...




Pre Chorus   (00:36)
e|-------------------------------------------5--|
B|-7-7-7-7-7-5-5-5-5-5--5-5-5-5-5—-5-5----------|
G|-7-7-7-7-7-7-7-7-7-7—-7-7-7-7-7—-6-6—6h7-7----|
D|----------------------------------------------| X2
A|----------------------------------------------|
D|----------------------------------------------|

Chorus    (00:59)
E|----------17----------------17----------------17----------------14b15r14---
B|----15-------15-------15-------15----15----14----14-------15---------------
G|-16----16-------16-14----14-------14----14----------14-16----16------------
D|---------------------------------------------------------------------------
A|---------------------------------------------------------------------------
E|---------------------------------------------------------------------------

----------17----------------17----------------17----------------17----------|
----15-------15-------15-------15----15----14----14-------15-------15----15-|
-16----16-------16-14----14-------14----14----------14-16----16-------16----|
----------------------------------------------------------------------------| X2
----------------------------------------------------------------------------|
----------------------------------------------------------------------------|

Verse   (01:11)
e|---------------------------------------|
B|---------------------------------------|
G|---------------------------------------|
D|-999---9/555---5/---000---0\---444—4\--|
A|-999---9/555---5/---000---0\---444—4\--| X2
D|-999---9/555---5/---000---0\---444—4\--|
   ...     ...        ...        ...

Pre Chorus    (01:23)
e|-------------------------------------------5--|
B|-7-7-7-7-7-5-5-5-5-5--5-5-5-5-5—-5-5----------|
G|-7-7-7-7-7-7-7-7-7-7—-7-7-7-7-7—-6-6—6h7-7----|
D|----------------------------------------------| X2
A|----------------------------------------------|
D|----------------------------------------------|

Chorus    (01:47)
E|----------17----------------17----------------17----------------14b15r14---
B|----15-------15-------15-------15----15----14----14-------15---------------
G|-16----16-------16-14----14-------14----14----------14-16----16------------
D|---------------------------------------------------------------------------
A|---------------------------------------------------------------------------
E|---------------------------------------------------------------------------

----------17----------------17----------------17----------------17----------|
----15-------15-------15-------15----15----14----14-------15-------15----15-|
-16----16-------16-14----14-------14----14----------14-16----16-------16----|
----------------------------------------------------------------------------| X2
----------------------------------------------------------------------------|
----------------------------------------------------------------------------|

Interlude    (01:53)
e|------------------------------------------------------------------|
B|------------------------------------------------------------------|
G|-11--11-11/9-9-9\-14--14-14/11-11-11—-11-11-11\9-9-9-6-6-6\7-7-7--|
D|--x---x--x-x-x-x---x---x--x--x--x--x—--x--x--x-x-x-x-x-x-x-x-x-x--| X2
A|--9---9—-9/7-7-7\-12--12-12/-9--9--9---9—-9--9\7-7-7-4-4-4\5-5-5--|
D|------------------------------------------------------------------|




Bridge    (02:04)
e|--------9----------------9-----------------9----------------9---------|
B|---10-----10---10---10-----10---10----10-----10---10---10-----10---10-|
G|------7------7---------7------7----------7------7---------7------7----|
D|-9----------------9-----------------0---------------------------------| X4
A|-----------------------------------------------------9----------------|
E|----------------------------------------------------------------------|

|--------9----------------9----------|
|---10-----10---10---10-----10---10--|
|------7------7---------7------7-----|
|-9----------------9-----------------|
|------------------------------------|
|------------------------------------|

Chorus   (02:31)
e|----------17----------------17----------------17----------------17----------
b|----15-------15-------15-------15----15----14----14-------15-------15----15-
g|-16----16-------16-14----14-------14----14----------14-16----16-------16----
D|---------------------------------------------------------------------------- 
A|----------------------------------------------------------------------------
D|----------------------------------------------------------------------------

----------17----------------17----------------17----------------17--B----
----15-------15-------15-------15----15----14----14-------15--------R----
-16----16-------16-14----14-------14----14----------14-16----16-----E----
--------------------------------------------------------------------A---- 
--------------------------------------------------------------------K----
-------------------------------------------------------------------------

(02:43)                                                                   End on
----------17----------------17----------------17----------------14b15r14-|------|
----15-------15-------15-------15----15----14----14-------15-------------|-15~--|
-16----16-------16-14----14-------14----14----------14-16----16----------|------|
-------------------------------------------------------------------------|------|
-------------------------------------------------------------------------|------|
-------------------------------------------------------------------------|------|

I’m pretty sure bout this. . . . 99.9% sure…!


| /  slide up
| \  slide down
| h  hammer on
| b  bend note
| r  release
| ~  let it ring
| .  palm Mute 
===============================================================================    

Added On December 5th, 2013

SHARE

Comments

blog comments powered by Disqus