Parkway Drive Tabs

Picture Perfect Pathetic Up To Lifeless

3 versions

TAB

            Picture Perfect Pathetic Up To Lifeless Tab by Parkway Drive


picture perfect pathetic riffs

-----------------|
----DRUM-FILL----|
-----------------|
Riff 1:

Guitar 1&2
Repeat x4
C#|-----------------------------------------|
G#|-----------------------------------------|
F |-----------------------------------------|
B |----------2------------4------------2----|
F#|7776664-4--4-7776664-4--7-7776664-4--4-4-|
B |-----------------------------------------|

Guitar 2:
Repeat x3
C#|-----------------------------------------|
G#|-----------------------------------------|
F |-----------------------------------------|
B |999-777-666666-777-666-444-222222-111----|
F#|--------------------------------------4--|
B |-----------------------------------------|

Repeat x1
C#|---------------------------------------------------------------|
G#|---------------------------------------------------------------|
F |---------------------------------------------------------------|
B |-9-7-6---9-7-6---12-10-9----12-10-9----14-12-11----14-12-11----|
F#|-------9-------9---------12---------12----------14----------14-|
B |---------------------------------------------------------------|

Riff 2:

Guitar 1:
Repeat x2
C#|-----------------------------------------|
G#|-----------------------------------------|
F |----------------------------7h10h9-6h9h8-|
B |--6-------6-------6-------6--------------|
F#|9---7-4-9---7-4h7---7-4-9----------------|
B |-----------------------------------------|

C#|-----------------------------------------|
G#|-----------------------------------------|
F |-----------------------------------------|
B |6-------6-------6-------6----------------|
F#|--7-4-9---7-4h7---7-4-9---774774774774---|
B |-----------------------------------------|

Guitar 2:

Repeat x1
C#|-----------------------------------------|
G#|-----------------------------------------|
F |----------------------------7h10h9-6h9h8-|
B |--6-------6-------6-------6--------------|
F#|9---7-4-9---7-4h7---7-4-9----------------|
B |-----------------------------------------|

C#|-----------------------------------------|
G#|-----------------------------------------|
F |-----------------------------------------|
B |6-------6-------6-------6----------------|
F#|--7-4-9---7-4h7---7-4-9---774774774774---|
B |-----------------------------------------|

Repeat x1
C#|-----------------------------------------|
G#|-----------------------------------------|
F |-----------------------------------------|
B |-----------------------------------------|
F#|-4----6----7----9----4----6----7----9----|
B |-----------------------------------------|

Guitar 1:

Repeat x1
C#|-----------------------------------------|
G#|-----------------------------------------|
F |----------------------------7h10h9-6h9h8-|
B |--6-------6-------6-------6--------------|
F#|9---7-4-9---7-4h7---7-4-9----------------|
B |-----------------------------------------|

C#|-----------------------------------------|
G#|-----------------------------------------|
F |-----------------------------------------|
C |6-------6-------6-------6----------------|
F#|--7-4-9---7-4h7---7-4-9---774774774774---|
B |-----------------------------------------|

Guitar 2:

Repeat x1
C#|-----------------------------------------|
G#|-----------------------------------------|
F |-----------------------------------------|
B |-----------------------------------------|
F#|-----------------------------------------|
B |00------000-00-00-----00-000-------------|

Riff before lifless
C#|-----------------------------------------|
G#|-----------------------------------------|
F |-----------------------------------------|
B |-----------------------------------------|
F#|-----------------------------------------|
B |-----------------------------------------|

LIFELESS
Still working it out will be up soon hopefully

Rate It Thanks    

Added On December 5th, 2013

SHARE

Comments

blog comments powered by Disqus