Passion Tabs

Lemonade

3 versions

TAB

            Lemonade Tab by Passion


Lemonade by Passion
Tabbed by Jordan Sanvicente, fujiwara_hachiroku_takumi@yahoo.com

Standard Tuning

Riff 1
e|--------------------------------|
B|--5--5-----3-----3--3--3-----3--|
G|--5--5--T--4---T-4--4--4--T--4--|
D|--5--5--A--3---A-3--4--4--A--3--|
A|--------P--4---P-4--------P-----|
E|--5--5--------------3--3-----4--|

Riff 2
e|-------------------------------------|
B|--5--5-----33------3-----3--3-----3--|
G|--5--5--T--44-----4--4---4--4--T--4--|
D|--5--5--A--33---3-----3--4--4--A--3--|
A|--------P--44--4---------------P-----|
E|--5--5-------------------3--3-----4--|

Basically all you do is play riff 1 then 2 everytime.

When you get to the 3rd chorus repeat at the end instead of playing riff 2, you finger pick.

This is the last riff when Passion sings "She's exactly what I need." As you know this part is slower.

Riff 3
"She's exa  ct   ly  what   I   neeeeeeed
    e|------5h7p5---------3-------------3--|
    B|-----5-----5-------3-------------3---|
    G|----5-------5-----4-------------4----|
    D|---5-------------3-------------4-----|
    A|----------------4--------------------|
    E|--5---------------------------3------|    

Added On December 5th, 2013

SHARE

Comments

blog comments powered by Disqus

VERSIONS

ADVERTISEMENT