Pearl Jam Tabs

Yield

1 versions

TAB

            Yield Tab by Pearl Jam


Yeild
Pearl Jam

Note to beginners:  Pearl Jam, like nearly all rock bands, uses the minor
pentatonic scale for almost all of their solos.  If you don't know this
scale, commit it to memory.  You'll be amazed at how much mileage you
can
get out of this one pattern:

E------------------------------------------12--15--
B----------------------------------12--15----------
G--------------------------12--14------------------
D------------------12--14--------------------------
A----------12--14----------------------------------
E--12--15------------------------------------------

This is the box pattern for the E minor pentatonic scale.  Note that there
are two notes on each string, the first being 12 and the second being 14 or
15, so it's pretty easy to memorize.  Eventually you'll want to learn the
notes of the scale up and down the whole neck, and throw in other notes,

but as I've said, just using the box pattern notes and some slides, bends,
hammer-ons, and pick-offs, you can make some pretty cool-sounding solos.

Anyway, enough theory.  Time for some music.  The reason I'm telling you
all this in the first place is because I'm too lazy to tab out the solos.

Track 1 (Brain of J.)

Riff 1:

E---------------------------------|-------------------------
B---------------------------------|-------------------------
G---------------------------------|-------------------------
D---------------------------------|-------------------------
A-9-9-9-8-8-8-7-----------5-------|-9-9-9-8-8-8-7-----\-----
E-7-7-7-6-6-6-5-----5-6-7---7-5---|-7-7-7-6-6-6-5-----\-----
                              vib                     slide

Verse 1 (w/ Riff 1):

Who's got the brain of JFK -
What's it mean to us now?
Oh, it's not distrust,
But I can tell you this is no lie.

Chorus:

C                                 Ab
The whole world will be different soon
          Bb
The whole world will be relieved, yeah.
C                                 Ab
The whole world will be different soon
          Bb
The whole world will be relieved, yeah.

Second verse (w/ Riff 1)
Chorus

Solo break: (2x)
                    vib                                 bend
E----------------------------------|--------------------------------------
B-16-16-16-15----------------------|-16-16-16-15--------------------------
G-------------------15----15-------|-------------------15(17)----17-15----
D----------------------------17-15-|-----------------------------------17-
A----------------------------------|--------------------------------------
E----------------------------------|--------------------------------------

Bridge:
G  D  G  D  G  D  Em  D
G  D  G  D  G  D  Em  D
G  D
Then G D G D G D (switching every two beats instead of four, giving a
double-time feel)

Solo in B minor pentatonic (7th fret box position) w/ Riff 1 (4x)

Chorus
Chorus
Riff 1 (2x)

Track 2 (Faithful)

Csus2 (x35533)
Ebsus2 (xx8866)
G6+9? (xx5755)
Esus2 (xx9977)    

Added On December 5th, 2013

SHARE

Comments

blog comments powered by Disqus

ADVERTISEMENT