Pennywise Tabs

Western World

3 versions

TAB

            Western world by Pennywise from their (upcoming) album Reason to Believe
The chords are not written down in the exact right amount, but it's really easy
if you listen to it.

Intro/Interlude thing
e|--------------------------------------------------------------------------|
B|--------------------------------------------------------------------------|
G|-2-2-2-2---------12/14-14-12/14/16/17--2-2-2-2---------12/14-14-12-10\9-9-|
D|-2-2-2-2-3-3-3-3--x--x--x--x--x--x--x--2-2-2-2-3-3-3-3--x--x--x--x-x--x-x-|
A|-0-0-0-0-3-3-3-3-10/12-12-10/12/14/15--0-0-0-0-3-3-3-3-10/12-12-10-8-\7-7-|
E|---------1-1-1-1-------------------------------1-1-1-1--------------------|

e|---------------------------------------------------------------------------------------|
B|---------------------------------------------------------------------------------------|
G|-2-2-2-2---------12/14-14-12/14/16/17--2-2-2-2-----------------------------------------|
D|-2-2-2-2-3-3-3-3--x--x--x--x--x--x--x--2-2-2-2-3-3-3-3-2-2-2-2-2-2-2-2-2-2-2-2-2-2-2-2-|
A|-0-0-0-0-3-3-3-3-10/12-12-10/12/14/15--0-0-0-0-3-3-3-3-2-2-2-2-2-2-2-2-2-2-2-2-2-2-2-2-|
E|---------1-1-1-1-------------------------------1-1-1-1-0-0-0-0-0-0-0-0-0-0-0-0-0-0-0-0-| 
*second guitar might wanna
PM                                                       
. . . . . . . . 			
play these last 8 chords one 
octave higher

Verse 2x
first time palm mute. Last time don't play the C5-D5-C5-G5 sequence.
e|--------------------------------------------------------------------------|
B|--------------------------------------------------------------------------|
G|-2-2-2-2-2-2-2-2-----------------2-2-2-2-2-2-2-2-------------5-7-5--------|
D|-2-2-2-2-2-2-2-2-3-3-3-3-5-5-5-5-2-2-2-2-2-2-2-2-3-3-3-3-5-5-5-7-5-5------|
A|-0-0-0-0-0-0-0-0-3-3-3-3-5-5-5-5-0-0-0-0-0-0-0-0-3-3-3-3-5-5-3-5-3-5------|
E|-----------------1-1-1-1-3-3-3-3-----------------1-1-1-1-3-3-------3------|


Chorus 2x
e|--------------------------------------------------------------------------|
B|--------------------------------------------------------------------------|
G|-------------------5-5-5-5-5-5-5-5-5-----------------7-7-7-7/9-9-9-9------|
D|--7-7-7-7-7-7-7-7--5-5-5-5-5-5-5-5-5-5-5-5-5-5-5-5-5-7-7-7-7-x-x-x-x------|
A|--7-7-7-7-7-7-7-7--3-3-3-3-3-3-3-3-3-5-5-5-5-5-5-5-5-5-5-5-5/7-7-7-7------|
E|--5-5-5-5-5-5-5-5--------------------3-3-3-3-3-3-3-3----------------------|    

Added On December 16th, 2013

SHARE

Comments

blog comments powered by Disqus

VERSIONS

ADVERTISEMENT