Pentagram Tabs

Broken Vows

1 versions

TAB

            -------------------------------------------------------------------------------
			     Broken Vows - Pentagram
-------------------------------------------------------------------------------
Tabbed by: Martin
Email: brainwasher@netti.fi

Tuning: Standard, or downtuned

These are the riffs in the song

Intro/riff 1

  E5   G5 F#5   B5 C5   D5   B arpeggio               C          D
e|---------------------------------------------------------------------------|
B|---------------------------------------------------------------------------|
G|------------------------------------8--------------------------------------|
D|-9---12--11----------------------9------9-----9----------------------------|
A|-7---10--9-----9/10---12------9------------9-------10---10-10---12---------|
E|-0-------------7/8----10----7----------------------8----8--8----10---------|

Riff 2 /verse
     E5               D5   C5
e|---------------------------------------------------------------------------|
B|---------------------------------------------------------------------------|
G|---9----9-9---------7----5-5-----------------------------------------------|
D|---9----9-9----7h9--7----5-5-----------------------------------------------|
A|---7----7-7----7----5----3-3-----------------------------------------------|
E|---0----0-0----------------------------------------------------------------|

Riff 3 /bridge
   D5 E5  A5 B5  D5 C5      G5 F#5 E5
e|-----------------------------------------------------------------------------|
B|-----------------------------------------------------------------------------|
G|--------------------------12--11--9------------------------------------------|
D|--7/9---------------------10--9---7------------------------------------------|
A|--5/7---7/9----12--10--------------------------------------------------------|
E|--------5/7----10--8---------------------------------------------------------|

Did not have time to tab the solos or the middle part (//heatwaves of anger/slowly 
burning down//) but otherwise the tab to this classic doom metal song should be correct. Have fun!



************************************

| /   slide up
| \   slide down
| h   hammer-on
| p   pull-off
| ~   vibrato
| +   harmonic
| x   Mute note
| b   Bend
| pb  Pre-bend
| br  Bend release
| pbr Pre-bend release
| brb Bend release bend

************************************    

Added On December 16th, 2013

SHARE

Comments

blog comments powered by Disqus

ADVERTISEMENT