Pepper Tabs

Good Enough

1 versions

TAB

            Good Enough Tab by Pepper


Pepper - Good Enough

_____INTRO__________________________


e|-xx-xx-|
b|-xx-xx-|
g|-xx-xx-|
d|-xx-xx-|
a|-xx-xx-|
E|-xx-xx-|


e|----------------------|
b|----------------------|
g|----------------------|
d|----------------------|
a|-4-4-2-4--------------|
E|----------4-4-4-4-0-0-| x2


_____VERSE__________________________

C# B

Girl I like what you do to me
...
Just trying to get all of my attention on you


_____PRE-CHORUS_____________________

F#                E (B)
But you're never, never satisfied


_____CHORUS_________________________

e|----------------------|
b|----------------------|
g|----------------------|
d|----------------------|
a|-4-4-2-4--------------|
E|----------4-4-4-4-0-0-| x4

Never good enough, it's never good enough
Never good enough, it's never good enough for you


_____VERSE__________________________

C# B

Girl I tell you that I love you
...
you hung up the phone

_____PRE-CHORUS_____________________

F#                E  (B)
Think I'll finish what I need to say


_____CHORUS_________________________

e|----------------------|
b|----------------------|
g|----------------------|
d|----------------------|
a|-4-4-2-4--------------|
E|----------4-4-4-4-0-0-| x4

It's never good enough, it's never good enough
It's never good enough, it's never good enough for you


_____INTERLUDE______________________

F#                E  B
Maybe I got no one left to


_____SOLO___________________________


e|-9-----------------------------------|
b|---11-9-9/11-9-----------------------|
g|---------------11-10-8-10-8-----8----|
d|----------------------------11----11-|
a|-------------------------------------|
E|-------------------------------------|

e|------------------------9/11-9-|
b|-------------------9/11--------|
g|-8-10/11-10--10/11-------------|
d|-------------------------------|
a|-------------------------------|
E|-------------------------------|

e|-11-13h14-13-11-13-11-9-----|
b|------------------------9---|
g|----------------------------|
d|----------------------------|
a|----------------------------|
E|----------------------------|

e|------------------|
b|-11-9-------------|
g|------11-10-8h10--|
d|------------------|
a|------------------|
E|------------------|


_____PRE-CHORUS_____________________

F#                E  B
Seems you're never, never satisfied


_____OUTRO__________________________

(same as chorus)

Never good enough, never good enough
...
It's never good enough for you    

Added On December 5th, 2013

SHARE

Comments

blog comments powered by Disqus

ADVERTISEMENT