Pepper Tabs

The Arena

1 versions

TAB

            -----------------------------------------------------------------
The Arena - Pepper
-----------------------------------------------------------------
Tabbed by: Brian Zucker
Email: bnzucker@comcast.net
Tuning: Standard
e|---------------------------------------------------------------|
B|---------------------------------------------------------------|
G|--------------------*------------------------------------------|
D|------**-**-**--4h6-6------------------------------------------|
A|--4s6-66-66-66---------4---------------------------------------|
E|---------------------------------------------------------------|x6

e|---------------------------------------------------------------|
B|---------------------------------------------------------------|
G|---------------------------------------------------------------|
D|---------*-*-*----6~---*-*-*-----------------------------------|
A|--6~-----9-8-6-8-------9-8-6-8--6~-----------------------------|
E|---------------------------------------------------------------|

e|---------------------------------------------------------------|
B|---------------------------------------------------------------|
G|---------------------------------------------------------------|
D|-------*-*-*-*-*-*-*--*-*-*-*-*-*------------------------------|
A|--*-*--4-6-8-6-8-9-11-9-8-9-8-9-8-6~---------------------------|
E|--4-6----------------------------------------------------------|
    D#m             C#
e|---6---6---6---6---4---4---4---4-------------------------------|
B|---7---7---7---7---6---6---6---6-------------------------------|
G|---8---8---8---8---6---6---6---6-------------------------------|
D|---8---8---8---8---6---6---6---6-------------------------------|
A|---6---6---6---6---4---4---4---4-------------------------------|
E|---x---x---x---x---x---x---x---x-------------------------------|

The rest of the song is just the chords. You can add some of your own fills if you want. 
Sounds really good with distortion. Key of F# if you wanna solo. Enjoy!

Brian

| *  palm mute
| /  slide up
| \  slide down
| h  hammer-on
| p  pull-off
| ~  vibrato
| +  harmonic
| x  Mute note    

Added On December 16th, 2013

SHARE

Comments

blog comments powered by Disqus

ADVERTISEMENT