Pepper Tabs

Too Much

1 versions

TAB

            Too Much Tab by Pepper


Intro/Chorus (distorted)
e-----------------------|
b-----------------------|
g-------666-------------|
d--888--666--444--666---|
a--888--444--444--666---|
e--666-------222--444---|

Verse (reggea strums)

e--6--4--2--4-----------|
b--6--6--2--4-----------|
g--6--6--3--5-----------|
d--8--6--4--6-----------|
a--8--4--4--6-----------|
e--6-----2--4-----------|    

Added On December 5th, 2013

SHARE

Comments

blog comments powered by Disqus

ADVERTISEMENT