Peter Bjorn And John Tabs

Second Chance

1 versions

TAB

            I recently saw these guys play this song on Conan, so I decided to figure out how to play it.
I really only have Live videos on youtube to go on for now so this is a pretty simple tab. 


Main Intro/Chorus Riff

e|-0-----3--0-----3--0-----3--0--3--0---------|
B|-0-----0--1-----0--1-----0--1--0--1---------|
G|-0-----0--0-----0--0-----0--2--0--2---------|
D|-2-----0--2-----0--2-----0--2--0--2---------|
A|-2-----2--3-----2--3-----2--0--2--0-(2-0--)-|
E|-0-----3--------3--------3-----3----(----3)-|

Right Before Chorus

e|-0-------3-------0-------|
B|-0-------0-------1-------|
G|-0-------0-------0-------|
D|-2-------0-------2-------|
A|-2-------2-------3-------|
E|-0-------3---------------|

He varies the way he plays the riff through out the song, and at least live he doesn't play 

during the first half of the verses. That being said the bass is playing basically the same 

thing. 

Lead riff played after chorus/before verse later in song


e|------------------------------------|
B|----------------15-12---------------|
G|-12-12-12--12----------12\9---------|
D|------------------------------------|
A|------------------------------------|
E|------------------------------------|

e|------------------------------------------|
B|----------------15-12---------------------|
G|-12-12-12--12----------14---12---11---9---|
D|------------------------------------------|
A|------------------------------------------|
E|------------------------------------------|    

Added On December 16th, 2013

SHARE

Comments

blog comments powered by Disqus

ADVERTISEMENT