Peter Mcconnel Tabs

Raptors Veld

1 versions

TAB

            Harm --------|
E|---------------|
B|------6-----8--|
G|---------6-----|                                         (x2)
D|---------------|
A|---------------|
E|--12-----------|

E|-----2h3p2--0-----0-----------------------------|
B|---------------2-----0--1-----0-----0-----0-----|        (x3)
G|---------------------------0-----2-----0--------|
D|---------------------------------------------3--|
A|------------------------------------------------|
E|--0---------------------------------------------|

E|--------------------------|
B|--------------------------|
G|--------------------------|
D|-----2h3p2p0--------------|
A|-------------h3--0--------|
E|--0-----------------3--0--|    

Added On December 16th, 2013

SHARE

Comments

blog comments powered by Disqus

ADVERTISEMENT