Peter Pan Speedrock Tabs

Next Town

1 versions

TAB

            Next Town Tab by Peter Pan Speedrock


8b9	= druk 8e fret op naar 9e/bend 8th fret to 9th
b9	= sla opgeduwde toon aan /strike bended tone
7b	= druk de snaar een klein beetje op/bend the string a little bit
~	= vibrato/vibration
\	= slide omlaag/slide down
/	= slide omhoog/slide up
x	= percussieslag/percussionstrike
(2)	= wordt af en toe gespeeld/ is played sometimes
>7	= accent geven/give accent
R	= rust/rest

cursieve cijfers/ italic numbers = laat doorklinken/let ring 

RIFF A alleen 1e keer/only 1st time

(bas valt in 3e maat in:/bass enters at 3th bar: A - E)
E --------------------------------|-----------------------------------|
B --------------------------------|-----------------------------------|
G ->0------7-9-x--9b--R-9-7-9-7---|---->0------7-9-x--9b----9-7-9-7---|
D ->0----9------------------------|---->0----9------------------------|
A ->2-----------------------------|-xx->1-----------------------------|
E ->3---------------------------\-|---------------------------------\-|

E --------------------------------|-----------------------0-------|
B --------------------------------|--10b12--10-9-10-9--9--9-------|
G ->9------7-9-x--9b--R-9-7-9-7---|-------------------------------|
D ->7----9------------------------|-------------------------------|
A ->0-----------------------------|-------------------------------|
E --------------------------------|-------------------------------|

opmerking: de 4e maat wordt gedubd door een tweede gitaar/ 
note: the 4th bar is dubbed by a second guitar

RIFF A daarna/afterwards

(bas speelt:/bass plays: B - Bb - A - E)
E -------------------------------------|--------------------------------------|
B ---------------(9b)---------(9)-(7)--|------------------(9b)-----------(7)--|
G ---------7-9-x--9b--(R)-9-7--9---7---|------------7-9-x--9b--(R)-9-7-9--7---|
D ->0----9-----------------------------|---->0----9---------------------------|
A ->2----------------------------------|-xx->1--------------------------------|
E -----------------------------------\-|------------------------------------\-|

E -----------------------------------|--------------------------0------|
B ----------------(9b)---------------|--10b12--10-9-10-9-(x)-9--9------|
G ->2-------7-9-x--9b--(R)-9-7-9-7---|---------------------------------|
D ->2---(9)--------------------------|---------------------------------|
A ->0--------------------------------|---------------------------------|
E -----------------------------------|---------------------------------|

opmerking: de 4e maat wordt gedubd door een tweede gitaar/ 
note: the 4th bar is dubbed by a second guitar
RIFF B

E ------------------------------|--------------------------------|
B ------------------------------|--------------------------------|
G ------------------------------|--------------------------------|
D ------------------------------|-7--7-x-7-7-7--7-(7)-7-x-7-7-7--|
A -5--5-x-5-5-5---5--5-x-5-5-5--|-5--5-x-5-5-5--5-(5)-5-x-5-5-5--|
E -3--3-x-3-3-3---3--3-x-3-3-3--|--------------------------------|

E --------------------------------|------------------------------------|
B --------------------------------|------------------------------------|
G --------------------------------|------------------------------------|
D --------------------------------|-5--5-x-5-5-5---5-(5)-5-x(5)-5-5-5--|
A -7--7-x-7-7-7--7--7-x(7)-7-7-7--|-3--3-x-3-3-3---3-(3)-3-x(3)-3-3-3--|
E -5--5-x-5-5-5--5--5-x(5)-5-5-5--|------------------------------------|

RIFF C

E --------------------------------|-----------------------------------|
B --------------------------------|-----------------------------------|
G --------------------------------|-----------------------------------|
D ->7->7->7->7-R------------------|->5->5->5->5-R---------------------|
A ->5->5->5->5-R--5---7--7--7--7--|->3->3->3->3-R--3---5--5-5--5-5-5--|
E ----------------3---5--5--5--5--|----------------1---3--3-3--3-3-3--|

E -----------------------------------|----------------------------------|
B -----------------------------------|----------------------------------|
G -----------------------------------|----------------------------------|
D ->7->7->7->7-R---------------------|-/5-5-5-5-5-5-5-5-5-5-5-5-5-5-5-5-|
A ->5->5->5->5-R--5---7--7-7--7-7-7--|-/3-3-3-3-3-3-3-3-3-3-3-3-3-3-3-3-|
E ----------------3---5--5-5--5-5-5--|----------------------------------|

E ---------------------------------|
B ---------------------------------|
G ---------------------------------|
D ---5-5-5-5-5-5-5-5-5-5-5-5-5-5-5-|
A -2/3-3-3-3-3-3-3-3-3-3-3-3-3-3-3-|
E ---------------------------------|

SOLO (door 2e gitaar; gitaar 1 speelt riff A/by 2nd guitar; guitar 1 plays riff A)

E --------------------------------------------------------------------|
B --------12-12--------12-12--------12-12--------12-12--------12-12---|
G -14/15b-------14/15b-------14/15b-------14/15b-------14/15b---------|
D --------------------------------------------------------------------|
A --------------------------------------------------------------------|
E --------------------------------------------------------------------|

E --------------------------------------------------------------------|
B --------14-14--------14-14--------14-14--------14-14--------14-14---|
G -16/17b-------16/17b-------16/17b-------16/17b-------16/17b---------|
D --------------------------------------------------------------------|
A --------------------------------------------------------------------|
E --------------------------------------------------------------------|

E --------------------------------------------------------------------|
B --------15-15--------15-15--------15-15--------15-15--------15-15---|
G -17/18b-------17/18b-------17/18b-------17/18b-------17/18b---------|
D --------------------------------------------------------------------|
A --------------------------------------------------------------------|
E --------------------------------------------------------------------|

E -----------------------------------------------------|
B --------17-17--------17-17--------17-17--------17-17-|
G -19/20b-------19/20b-------19/20b-------19/20b-------|
D -----------------------------------------------------|
A -----------------------------------------------------|
E -----------------------------------------------------|

E ------------------------------|
B -17-----17-----17------17---\-|
G -19b20b-19b20b-19b20b-b20b--\-|
D ------------------------------|
A ------------------------------|
E ------------------------------|

EINDE VAN SONG/END OF SONG 

E --------------------------------|-----------------------|----------------------|
B --------------------------------|-----------------------|----------------------|
G --------------------------------|-----------------------|--4~------------------|
D --5-5-5-5-5-5-5-5-5-5-5-5-5-5-5-|-5----5----5----5--5-5-|---------fade out-----|
A -/3-3-3-3-3-3-3-3-3-3-3-3-3-3-3-|-3----3----3----3--3-3-|--2~------------------|
E --------------------------------|-----------------------|----------------------|    

Added On December 5th, 2013

SHARE

Comments

blog comments powered by Disqus

ADVERTISEMENT