Peter Pan Speedrock Tabs

Sunny Side Up

1 versions

TAB

            Sunny Side Up Tab by Peter Pan Speedrock


7p5	= pull-off
8b9	= druk 8e fret op naar 9e/bend 8th fret to 9th
b9	= sla opgeduwde toon aan /strike bended tone
7b8r7	= druk 7e fret op naar 8e en laat weer terugkomen in oude positie/
 	   bend 7th fret to 8th and release to old position
7b	= druk de snaar een klein beetje op/bend the string a little bit
~~	= veel vibrato/much vibration
\	= slide omlaag/slide down
/	= slide omhoog/slide up
x	= percussieslag/percussionstrike
0	= afdempen/mute strings
0	= licht afdempen/mute strings slightly
(2)	= wordt af en toe gespeeld/ is played sometimes
>7	= accent geven/give accent
^	= opslag/upstroke
*	= onduidelijk/unclear
R	= rust/rest

cursieve cijfers/ italic numbers = laat doorklinken/let ring 

RIFF A - B - C COMBINATIE/COMBINATION:

de volgende drie riffs worden op meerdere manieren met elkaar gecombineerd/
the following three riffs are combined to each other in superior ways:
RIFF A

E -------------------|
B -------------------|
G -------------------|
D -------1-^3-3-^1---|
A ---3-3-----------3-|
E -1-----------------|

RIFF B

E ---------------------------------|
B ---------------------------------|
G ---------------------------------|
D ---------------------------------|
A -3-3-3-3-3-3-3-3-3-3-3-3-3-3-3-3-|
E -1-1-1-1-1-1-1-1-1-1-1-1-1-1-1-1-|

RIFF C

E -----------------|-----------------|
B -----------------|-----------------|
G -----------------|-----------------|
D -2---------------|-----------------|
A -0---------------|-5---------------|
E -----------------|-3---------------|

RIFF C2

E -----------------|-----------------|-----------------|-----------------|
B -----------------|-----------------|-----------------|-----------------|
G -----------------|-----------------|-5---------------|-7---------------|
D -2---------------|-----------------|-5---------------|-7---------------|
A -0---------------|-5---------------|-x---------------|-x---------------|
E -----------------|-3---------------|-3---------------|-5---------------|

RIFF D

      1.2.3. keer/time			4. keer/time
     
E -----------------|---------------------|
B -----------------|---------------------|
G -----------------|---------------------|
D --------->3--R---|->3--->4--->5--->6---|
A ->2--R--->2--R---|->3--->4--->5--->6---|
E ->1--R-----------|->1--->2--->3--->4---|
opmerking: door de accoorden in de laatste maat licht af te dempen 
ontstaat het "droge" geluid/ 
note: by muting the chords in the last bar slightly, 
the "dry" sound arises

RIFF E
E ----------------------------------|
B ----------------------------------|
G ----------------------------------|
D -2-2--2-2---5-R--4-4-2--2---------|
A -0-0--0-0---0-R--0-0-0--0-(0)-----|
E -----------------------------(3b)-|

(SOLO) RIFF F (met 2e keer kleine variaties/with the 2nd time little variations)

(bas speelt in F/bass plays in key of F):

E --0---0--0--0--0-----0--0--0-----0--0--0-----0--0--0-----0--0--0-----|
B -/10--11-10-11-10----10-11-10----10-11-10----10-11-10----10-11-10----|
G ------------------10----------10----------10----------10----------10-|
D ---------------------------------------------------------------------|
A ---------------------------------------------------------------------|
E ---------------------------------------------------------------------|

opmerking: pak de 10e positie op de B-snaar met de wijsvinger 
en pak de beide andere posities allebei met de middelvinger/ 
note: take the 10th position on the B-string with the forefinger 
and take both the other positions with the middlefinger

(bas speelt in A/bass plays in key of A):
E -*12b13-12b13-13~~*--------------------------------------------------------|
B -*12b13-12b13-13~~*--0-----------------0-----------------0-----------------|
G ---------------------7b8--b8-b8r7------7b8--b8-b8r7------7b8--b8-b8r7------|
D ----------------------------------10p7--------------10p7--------------10p7-|
A ---------------------------------------------------------------------------|
E ---------------------------------------------------------------------------|

E ----------------|
B -0--------------|
G -7b8--b8-b8r7\--|
D ----------------|
A ----------------|
E ----------------|

BREAK

E -------------------|-------------------|-------------------|
B -------------------|-------------------|-------------------|
G --------drum-------|-------------------|--------drum-------|
D --------fill-------|->3->1-------------|--------fill-------|
A -------------------|------->3->2->1----|-------------------|
E -R-----------------|---------------->4-|->1-R--------------|

E -------------------|-------------------|
B -------------------|-------------------|
G -------------------|-------------------|
D ->3->1-------------|-------------------|
A ------->3->2->1----|->3----------------|
E ---------------->4-|->1----------------|

EINDE SONG/END OF SONG

      1.2.3. keer/time			4. keer/time
     
E -----------------|------------------|
B -----------------|------------------|
G -----------------|------------------|
D --------->3--R---|------------------|
A ->2--R--->2--R---|->2-R-->3->3->3-R-|
E ->1--R-----------|->1-R-->1->1->1-R-|    

Added On December 5th, 2013

SHARE

Comments

blog comments powered by Disqus

ADVERTISEMENT