Phantom Planet Tabs

Big Brat

2 versions

TAB

            Big Brat Tab by Phantom Planet


Well its kinda bad, but thats how I play it:
Phantom Planet - Big Brat

Dropped D (DADGBe)

Verse / Chorus
e|---------------------------------------------|
B|---------------------------------------------|
G|---------------------------------------------|
D|-12-12-12-12\3-5-3-5/------------------------|many times
A|-12-12-12-12\3-5-3-5/------------------------|
D|-12-12-12-12\3-5-3-5/------------------------|

Pre-Chorus
e|-----------------------------------|
B|-----------------------------------|
G|-----------------------------------|
D|-7-7-7-7-7/9\7---------------------| x2
A|-7-7-7-7-7/9\7---------------------|
D|-7-7-7-7-7/9\7---------------------|

Chourus
Verse
Pre-Chorus
Chorus

Breakdown

G|--------------------------------------|
D|-0-3-2-5-3-7-5-23--0--3-2-5-3-7-5-232-|
A|--------------------------------------|
D|--------------------------------------|

Chorus

End thing on video

E----------------------------------------------------------------------
B----------------------------------------------------------------------
G----------------------------------------------------------------------
D----------9996666--------6664444--------------------------------------
A--77777777-------44444444---------------9996666-77777777--------------
D--------------------------------99999999--------77777777--------------    

Added On December 5th, 2013

SHARE

Comments

blog comments powered by Disqus

VERSIONS

ADVERTISEMENT