Phish Tabs

Weekapaug Groove

1 versions

TAB

            E --------------------------|
B -7-7-7h8-88-7/5-5-8-------|
G -7-7-7---77-7/5-5-7-------|
D -7-7-7h9-99-7/5-5-5-7-----|
A --------------------7h9---|
E --------------------------|

Thats the whole song

The solo is in G but he plays a lot of this scale

E -----------------------------7-9-10--|
B -----------------------7-9-10--------|
G -------------------7-9---------------|
D -------------7-9-10------------------|
A -------7-9-10------------------------|
E -7-8-10------------------------------|    

Added On December 16th, 2013

SHARE

Comments

blog comments powered by Disqus

ADVERTISEMENT