Pietasters Tabs

Metro

1 versions

TAB

            Metro
The Pietasters

Intro/Verse
|--5--|
|--5--|
|--6--|
|-----|
|-----|
|-----|

Segway              x3
|--4-4--5-5--7-7--5-5--|--4-4--2-2--1-1--0-0--|
|--5-5--6-6--8-8--6-6--|--5-5--3-3--2-2--1-1--|
|--4-4--5-5--7-7--5-5--|--4-4--2-2--1-1--0-0--|
|----------------------|----------------------|
|----------------------|----------------------|
|----------------------|----------------------|

Solo
|--/17---------------------------------------------|
|------17~--15-17-18-20-18-17~--15-17-18-20-18-17--|
|--------------------------------------------------|
|--------------------------------------------------|
|--------------------------------------------------|
|--------------------------------------------------|

|----------------------------------------|
|--18-17-15-17-15----15------------------|
|-----------------17----17-16-17-16-14~--|
|----------------------------------------|
|----------------------------------------|
|----------------------------------------|    

Added On December 16th, 2013

SHARE

Comments

blog comments powered by Disqus

ADVERTISEMENT